>
 >
Blue Shadows

Blue Shadows Guitar Tabs

Randy Newman - Blue Shadows chords, tabs, tablatures, lyrics

Guitar lessons | Add/correct | Request | Top 50 tabs Artists:  A B C D E F G H I J K L M N O P Q R S T U V W X Y Z 0-9

Blue Shadows Guitar Tabs – Randy Newman

CD, Sheet music, Poster

Do you like Blue Shadows? Share with your friends now
ChordsTabsUkulele
Every tab I found for this song aside from the intro was junk,
so I studied the movie carefully.  Problem is the song modifies
more to piano, so I tried to just go with the spirit of the song.
To be accurate, you've got to tune your strings more flat, but
I think staying in standard tuning is fine. I tried to include
chords to help set up your fingers right.

INTRO (from other internet tabs)

E--------------------------------------------------------------|
A--------------------------------------------------------------|
B--------------------------------------------------------------|
D--------------------------------------------------------------|
G-----2---4---2-----2---4---2-----2---4---2---2----4---3---2---|
e--0-------------1-------------2-------------------------------|

repeat 1x


VERSE ONE
         E                                      E7
E--------------------------------------------------------------|
A----------------------4-------------------------3-------------|
B--------1-------------4------------1------------1-------------|
D--------2----------4-----4---------2--------------------------|
G-----2-----2----2---------------2-----2------2----2-----------|
e--0--------------------------0------------0-------------------|

Arizona moon...

         A                          E           E7
E--------------------------------------------------------------|
A--------2-------------2------------0------------3-------------|
B--------2-------------3------------1------------1-------------|
D-----2-----2-------2-----2------2-----2------2----2-----------|
G--0-------------1------------2--------------------------------|
e------------------------------------------0-------------------|


         A                          E
E--------------------------------------------------------------|
A--------2-------------2------------0------------6-------------|
B--------2-------------3------------1------------4-------------|
D-----2-----2-------2-----2------2-----2------6----6-----------|
G--0-------------1------------2------------4-------------------|
e--------------------------------------------------------------|

You know pretty soon...                   ...yellow moon.

                                   Bm
E-----------------------------------2--2-----------------------|
A-----------------------------------0--0-----------------------|
B--------3----------3---------------2--2-----------------------|
D--------4----------4------------1-----------------------------|
G-----4-----4----4-----4------2--------------------------------|
e--2-----------2-----------------------------------------------|

Will light...                     ...you love.


CHORUS

         E
E--------------------------------------------------------------|
A----------------------6-------------------------4-------------|
B--------1-------------4------------3------------4-------------|
D--------2----------6-----4---------4---------4-----4----------|
G-----2-----2----4---------------4-----4---2-------------------|
e--0--------------------------2--------------------------------|

Blue shadows...  on the trail
(Blue shadows... on the trail)

         E
E--------------------------------------------------------------|
A----------------------6-------------------------4-------------|
B--------1-------------4------------3------------4-------------|
D--------2----------6-----4---------4---------4-----4----------|
G-----2-----2----4---------------4-----4---2-------------------|
e--0--------------------------2--------------------------------|

Little cowboy
(Soft wind blowing)


E-----------------------------|
A----------------------6---6--|
B--------6-----6-------4---4--|
D--------5-----5----6----6----|
G-----6-----6-----4-----------|
e--4--------------------------|

Close your eyes and dream.
(Through the trees above)

PART ONE

         A                          E
E--------------------------------------------------------------|
A--------2-------------2------------0------------0-------------|
B--------2-------------3------------1------------1-------------|
D-----2-----2-------2-----2------2-----2------2----2-----------|
G--0-------------1------------2--------------------------------|
e------------------------------------------0-------------------|

All of the...                   ...corral.
(All the other                  ...cowboys->PART 2)

         A                          E
E--------------------------------------------------------------|
A--------2-------------2------------0------------3-------------|
B--------2-------------3------------1------------1-------------|
D-----2-----2-------2-----2------2-----2-----------------------|
G--0-------------1------------2---------------2----2-----------|
e------------------------------------------0-------------------|

All of your...                   ...done.

         A                          E
E--------------------------------------------------------------|
A--------2-------------2------------0------------6-------------|
B--------2-------------3------------1------------4-------------|
D-----2-----2-------2-----2------2-----2------6----6-----------|
G--0-------------1------------2------------4-------------------|
e--------------------------------------------------------------|

Just close your...                      ...little pal.


E-----------------------------|
A------------------4----------|
B--------3---------4----------|
D--------4------4-------------|
G-----4------2----------------|
e--2--------------------------|

Dream of some one.

Then play:
INTRO
CHORUS (follow parenthesis until Part 2)


PART 2

E----------------------------------------------------------|
A-------------------4-------------------------------4------|
B--------3----------4----------5-----5-------3------4------|
D--------4-------4----4--------6-----6-------4----4--------|
G-----4----4--2-------------6-----6--------4----2----------|
e--2---------------------4---------------2-----------------|

Back in...                   ...now.     So...  eyes and...


Play INTRO, repeat to taste, end on E strum.
(Dream...)





Comments


Popular Randy Newman tabs & chords
Almost There Chords
Big And Loud Chords
Birmingham 2 Chords
Can't Keep A Good Man Down Chords
Jolly Coppers On Parade Chords
Short People Chords
I Love To See You Smile Ukulele
Memo To My Son Ukulele
Only A Girl Ukulele
Song For The Dead Ukulele


Song lyrics



↑ Back to top | Tablatures and chords are parodies/interpretations of the original songs. You may use it for private study, scholarship, research or language learning purposes only
© 2014 AZChords.com Contact us | Privacy policy | DMCA | Add/correct tabs | Request tabs | Top 50 tabs