» » »

Rancid, Tropical London Tabs (ver.2)

Artists:  A B C D E F G H I J K L M N O P Q R S T U V W X Y Z # 

Tropical London Tabs (ver.2)

Rancid Tabs
Rating:
0/5 (0 votes)
Tropical London lessons Tabs too difficult? Try these video lessons and learn fast
                Guitarist(s):  Tim Armstrong,  Lars Frederiksen
Standard Tuning 
I have tried to tab out the main parts of this song,  obviously there are 2 guitars,  but the way I have 
Maybe more Rancid tabs coming.  If you’re lucky...


Intro  (w/ some distortion)

e-----------------------------------------------------------
b-----------------------------------------------------------
g--------------------5---3~---------------------------------------
d-------------5~----5---3~----1-1-1-1-1-0------------------------
a-------------5~----3---1~--------------------3-1-----------------
e--6-5-3-----3~-----------------------------------------------
Verse - palm muted
e-----------------------------------------------------------
b-----------------------------------------------------------
g------------------------------------3-3-3-3-3-3-3-------------------
d-3-3-3-3-3-3---------------------1-1-1-1-1-1-1-----------3-3-3-3-3-3-3----
a-1-1-1-1-1-1------5-5-5-5-5-5----------------------------1-1-1-1-1-1-1-x6-
e---------------------3-3-3-3-3-3----------------------------------

Chorus 
e-----------------------------------------------------------
b-----------------------------------------------------------
g----------------------------8~-------------------------------------- x8
d-------5~-------5~--------8~-----------------------------------------
a-------5~-------5~--------6~-----------------------------------------
e-------3~-------3~-----------------------------------------------
The keyboard plays the second part of the chorus...

Solo.  There are two solos which are essentially the same.
This is pretty close.
e-----------------------------------------------------------
B-----------------------------------------------------------
G-----------------------------------------------------------
D-----------------------------------------------------------
A-1-1-1-1-1-3-5//8-8-8-8-8-10-10-12-12-12-12-12-10-10-8~-x2-
E-----------------------------------------------------------
Play about with this and change where you play the notes (ie on different strings) but this should be a 
starting point.
            

comments powered by Disqus
↑ Back to top | Rancid Tabs for Tropical London. Lyrics for acoustic guitar and electric guitar. Tablatures and chords are parodies/interpretations of the original songs. You may use it for private study, scholarship, research or language learning purposes only