» » »

Rancid, Time Bombe Bass tabs (ver.1)

Artists:  A B C D E F G H I J K L M N O P Q R S T U V W X Y Z # 

Time Bombe Bass tabs (ver.1)

Rancid Tabs
 Rating:
4/5 (4 votes)
Time Bombe lessons Tabs too difficult? Try these video lessons and learn fast
1
                Intro:
G|-----------------------------
D|--------------------2-2-2-0--
A|-2-2-2--------2-2-2----------
E|--------4-4-4----------------

Verse
G|------------------------------------
D|-----0-4-2-4-2-0--------0-----------
A|-2-4---------------2-4---4--------4-
E|-----------------------------0-2-4--

Chorus
G|--------------------1---------------
D|-------2----2-0-1-2----4-2-0----0-2-
A|0-0-4-----4------------------4------
E|------------------------------------

G|-------------------------------
D|-------------------------------
A|-------------------------------
E|0-0-0-0-0-0-0-0-0-0-0-0-0-0-0-0

Wenn die Orgel mitspielt:
G|-------------------------------------------------
D|------2-0----0-1-2-0-4-2---2-------2-0----0-1-2-0
A|0-0-4------4-------------4---0-0-4------4--------
E|-------------------------------------------------

Plz Rate this tab :D!!!!
            
Submit corrections

comments powered by Disqus
↑ Back to top | Rancid Bass for Time Bombe. Lyrics for acoustic guitar and electric guitar. 1 Tablatures and chords are parodies/interpretations of the original songs. You may use it for private study, scholarship, research or language learning purposes only