» » »

The Brothels Tabs (ver.1)

Artists:  A B C D E F G H I J K L M N O P Q R S T U V W X Y Z # 

The Brothels Tabs (ver.1)

Rancid
Rating:
0/5 (0 votes)

Tabs too difficult? Try these video lessons and learn fast.
                pretty good song too, i think this is off of some hellcat compilation, whatever
  \=slide
 i didnt bother to do the backround guitars but o well
intro, repeat quite a few times 
E---------------------------------------------------------------
B----------------------------------------------------------------
G-------------------------------------9-7-------------------
D--6\7-7-7--6\7-7-7--6\7-7-7----------9-7---------------------
A--6\7-7-7--6\7-7-7--6\7-7-7----------7-5---------------------------
E--4\5-5-5--4\5-5-5--4\5-5-5---------------------------------------------

verse/corus   for corus use the same cords only palm mute
E-------------------------------------------------
B-------------------------------------------------         pre corus
G--5--7---------------------------------------------           ------
D--5--7--3--5---------------------------------------           ---2----
A--3--5--3--5-------------------------------------              --2----
E--------1--3---------------------------------------            --0---
  after the sirins tims repeatin this over and over again
E---8-8-8-8-8-8-8-8-8--------------------------------------
B-------------------------------------------------
G-------------------------------------------------
D-------------------------------------------------
A-------------------------------------------------
E-------------------------------------------------
            
Tabs too difficult? Try these video lessons and learn fast.




comments powered by Disqus
↑ Back to top | Tablatures and chords are parodies/interpretations of the original songs. You may use it for private study, scholarship, research or language learning purposes only