» » »

Spirit Oif Bass tabs (ver.1)

Artists:  A B C D E F G H I J K L M N O P Q R S T U V W X Y Z # 

Spirit Oif Bass tabs (ver.1)

Rancid
Rating:
0/5 (0 votes)

Hard to play? Try these video lessons and learn fast.
                Chorus
|-------------------------|
|-------------------------|
|-------5-55--2-22-1-3\0--|
|-2-22--------------------|

fill
|----------2-4-444~7/9-|
|--4-444-5-------------|
|----------------------|
|----------------------|

Verse
|----------------------|
|----------------------|
|-------5>---2>---0>---|
|--2>------------------| 

thats it's
 - the knaughty viking
            
Hard to play? Try these video lessons and learn fast. | Correct




comments powered by Disqus
↑ Back to top | Tablatures and chords are parodies/interpretations of the original songs. You may use it for private study, scholarship, research or language learning purposes only