» » »

Roots Radicals Tabs (ver.4)

Artists:  A B C D E F G H I J K L M N O P Q R S T U V W X Y Z # 

Roots Radicals Tabs (ver.4)

Rancid
Rating:
0/5 (0 votes)

Hard to play? Try these video lessons and learn fast.
                Rancid
Roots Radicals

pm- Palm Mute

E|-----------------------------------------------
B|-----------------------------------------------
G|-55-5--55-5--------------------------55-5--55-5
D|-55-5--55-5--33-3--33-3--55-5--33-3--55-5--55-5
A|-33-3--33-3--33-3--33-3--55-5--33-3--33-3--33-3
E|-------------11-1--11-1--33-3--11-1------------
  |__|  |__|  |__|  |__|  |__|  |__|  |__|  |__|
   PM    PM    PM    PM    PM	 PM    PM    PM
E|-----------------------------------------------
B|-----------------------------------------------
G|-55-5--55-5--------------------------55-5--55-5
D|-55-5--55-5--33-3--33-3--55-5--33-3--55-5--55-5
A|-33-3--33-3--33-3--33-3--55-5--33-3--33-3--33-3
E|-------------11-1--11-1--33-3--11-1------------
  |__|  |__|  |__|  |__|  |__|  |__|  |__|  |__|
   PM    PM    PM    PM    PM	 PM    PM    PM
E|-----------------------------------------------
B|-----------------------------------------------
G|-55-5--55-5--------------------------55-5--55-5
D|-55-5--55-5--33-3--33-3--55-5--33-3--55-5--55-5
A|-33-3--33-3--33-3--33-3--55-5--33-3--33-3--33-3
E|-------------11-1--11-1--33-3--11-1------------
  |__|  |__|  |__|  |__|  |__|  |__|  |__|  |__|
   PM    PM    PM    PM    PM	 PM    PM    PM
            
Hard to play? Try these video lessons and learn fast. | Correct




comments powered by Disqus
↑ Back to top | Tablatures and chords are parodies/interpretations of the original songs. You may use it for private study, scholarship, research or language learning purposes only