>
 >
Old Francid: Old Friendriend

Old Francid: Old Friendriend Guitar Tabs

Rancid - Old Francid: Old Friendriend chords, tabs, tablatures, lyrics

Guitar lessons | Add/correct | Request | Top 50 tabs Artists:  A B C D E F G H I J K L M N O P Q R S T U V W X Y Z 0-9

Old Francid: Old Friendriend Guitar Tabs – Rancid

CD, Sheet music, Poster

Do you like Old Francid: Old Friendriend? Share with your friends now
Tabs
A=Guitar 1  B=Guitar 2  A&B=Both

Intro A 2x
e----------------|-2-0-2-0-2-0-|
b----------------|-------------|
g-2h4-4-4444-2---|-------------|
d--------------4-|-------------|
a----------------|-------------|
E-\-----3x-----/-|-------------|

Intro B 2x Repeat each chord as long as each partof Intro A it's under.
e-x2x------------|-x4x---------|
b-x3x------------|-x5x---------|
g-x4x------------|-x4x---------|
d-x4x------------|-------------|
a----------------|-------------|
E----------------|-------------|

Chorus A&B 2x (Good morning heart ach...)
e-x5x5x5x5--------------------------------|
b-x5x5x5x5-x9x9x9x9-x11x11x11x11-x7x7x7x7-|
g-x6x6x6x6-x9x9x9x9-x11x11x11x11-x7x7x7x7-|
d-x7x7x7x7-x9x9x9x9-x11x11x11x11-x7x7x7x7-|
a-----------------------------------------|
E-----------------------------------------|

Verse A&B (about 8x)
e-x5x5------------------|
b-x5x5-x9x9-x11x11-x7x7-|
g-x6x6-x9x9-x11x11-x7x7-|
d-x7x7-x9x9-x11x11-x7x7-|
a-----------------------|
E-----------------------|

Then Chorus,Verse 4x,Chorus,Intro

Play this 4x before solo
e-----------------|
b-2~----------3~--|
g-2~----------2~--|
d-2~--2~--4~--0~--|
a-0~--2~--4~------|
E-----0~--2~------|

Solo A
e-4/5-555-4/5-555--5-5-5--4/5-555-4/5-555-8-5--------->
b-4/5-555-4/5-555--8-8-8--4/5-555-4/5-555-----8-5----->
g-------------------------------------------------7-5->
d----------------------------------------------------->
a----------------------------------------------------->
E----------------------------------------------------->

-4/5-555-4/5-555-5-5-5--4/5-55-8-5-----8-5------------|
-4/5-555-4/5-555-8-8-8--4/5-55-----8-5-----8-5--------|
-----------------------------------------------7-5----|
---------------------------------------------------7~-|
------------------------------------------------------|
------------------------------------------------------|

Then play Verse 4x,Chorus,Verse 4x

Outro
e-0--0--2--2--0--|
b-2--0--2--3--2--|
g-2--1--3--2--2--|
d-2--2--4--0--2--|
a-0--2--4-----0--|
E----0--2--------|





Comments


Popular Rancid tabs & chords
Corruption 4 Bass Tabs
Maxwell Murder 9 Bass Tabs
Salvation Bass Tabs
Solidarity 3 Bass Tabs
Stickin In My Eye Bass Intro 1 Bass Tabs
Disconnected Chords
Indestructable Chords
Olympia Wa 1 Chords
The Way I Feel Chords
Black Lung Tabs


Song lyrics



↑ Back to top | Tablatures and chords are parodies/interpretations of the original songs. You may use it for private study, scholarship, research or language learning purposes only
© 2014 AZChords.com Contact us | Privacy policy | DMCA | Add/correct tabs | Request tabs | Top 50 tabs