» » »

It's Quite Alright Tabs (ver.1)

Artists:  A B C D E F G H I J K L M N O P Q R S T U V W X Y Z # 

It's Quite Alright Tabs (ver.1)

Rancid
Rating:
0/5 (0 votes)

Hard to play? Try these video lessons and learn fast.
                                  Rancid – It’s Quite Alright

Intro
e|---------------------------------------------------------------------------|
B|---------------------------------------------------------------------------|
G|-5555-4444-2222----------------5555~---------------------------------------|
D|-5555-4444-2222-5555-3333-2222-5555~---------------------------------------|
A|-3333-2222-0000-5555-3333-2222-3333~---------------------------------------|
E|----------------3333-1111-0000---------------------------------------------|

Intro (guitar 2)
e|---------------------------------------------------------------------------|
B|---------------------------------------------------------------------------|
G|-5~---4~---2~--------10~--9~---5~------------------------------------------|
D|-5~---4~---2~---5~---10~--9~---5~------------------------------------------|
A|-3~---2~---0~---5~----8~--7~---3~------------------------------------------|
E|----------------3~---------------------------------------------------------|

Verse
e|---------------------------------------------------------------------------|
B|---------------------------------------------------------------------------|
G|-55555555-88888888-1010101010101010-55555555-------------------------------|
D|-55555555-88888888-1010101010101010-55555555-------------------------------|
A|-33333333-66666666--8-8-8-8-8-8-8-8-33333333-------------------------------|
E|---------------------------------------------------------------------------|

Verse (guitar 2)
e|-0--------1--------1--------0----------------------------------------------|
B|---1--------3--------1--------1--------------------------------------------|
G|-----0--------2--------2--------0------------------------------------------|
D|---------------------------------------------------------------------------|
A|---------------------------------------------------------------------------|
E|---------------------------------------------------------------------------|

Chorus
e|---------------------------------------------------------------------------|
B|---------------------------------------------------------------------------|
G|---------------------------------------------------------------------------|
D|-33333333-22222222---------------------------------------------------------|
A|-33333333-22222222---------------------------------------------------------|
E|-11111111-00000000---------------------------------------------------------|

Chorus (guitar 2)
e|---------------------------------------------------------------------------|
B|---------------------------------------------------------------------------|
G|-10~------9~---------------------------------------------------------------|
D|-10~------9~---------------------------------------------------------------|
A|--8~------7~---------------------------------------------------------------|
E|---------------------------------------------------------------------------|
            
Hard to play? Try these video lessons and learn fast. | Correct




comments powered by Disqus
↑ Back to top | Tablatures and chords are parodies/interpretations of the original songs. You may use it for private study, scholarship, research or language learning purposes only