» » »

Im Not He Only One Tabs (ver.1)

Artists:  A B C D E F G H I J K L M N O P Q R S T U V W X Y Z # 

Im Not He Only One Tabs (ver.1)

Rancid
Rating:
0/5 (0 votes)

Hard to play? Try these video lessons and learn fast.
                Tunning: standerd 
PM: palm mute
   
        This song was one of the first ones rancid ever recordedby Rancid. 
        Lars Fredrikson wasn't in  the band yet so when you here this song 
        it is only Tim "Lint" Armsrong, Bret Reed and Matt"the bass genius"
        Freeman. i think this is one of there more better songs they've made,
        not because lars isn't there but because it just sounds so original.
        Tim Armstong is one of the best song writers iv'e ever herd,He was 
        the king in Operation ivy and he is the king in rancid, tim armstrong
        will always be the king in my book. well enogh kiss ass and 
        here is my tab for "im not the only one"

      
       
   INTRO
 e|-----------------------------------------------------------------------|
 B|-----------------------------------------------------------------------|
 G|-----------------------------------------------------------------------|
 D|---2-2-2-2-2-2-2-2--3-3-3-3-3-3-3-3--2-2-2-2-2-2-2-2--3-3-3-3-3-3-3-3--|
 A|---2-2-2-2-2-2-2-2--1-1-1-1-1-1-1-1--2-2-2-2-2-2-2-2--1-1-1-1-1-1-1-1--|
 E|---0-0-0-0-0-0-0-0-------------------0-0-0-0-0-0-0-0-------------------|
    pm...............                 pm...............

 
 e|-----------------------------------------------------------------------|
 B|-----------------------------------------------------------------------|
 G|-----------------------------------------------------------------------|
 D|---2-2-2-2-2-2-2-2--3-3-3-3-3-3-3-3--2-2-2-2-2-2-2-2--3-3-3-3-3-3-3-3--|
 A|---2-2-2-2-2-2-2-2--1-1-1-1-1-1-1-1--2-2-2-2-2-2-2-2--1-1-1-1-1-1-1-1--|
 E|---0-0-0-0-0-0-0-0-------------------0-0-0-0-0-0-0-0-------------------|
    pm...............                 pm...............

 e|-----------------------------------------------------------------------|
 B|-----------------------------------------------------------------------|
 G|---------------------------7-7-7---------------------------------------|
 D|---------------------------5-5-5---------------------------------------|
 A|---5-5-4-5-5-4-5-5-4-5-5-----------------------------------------------|
 E|---3-3-2-3-3-2-3-3-2-3-3-----------------------------------------------|

   verse 1

   "sHES got a lot going.........
 e|-----------------------------------------------------------------------|
 B|-----------------------------------------------------------------------|
 G|--2-2-2-2-2-2-2-2-------------------2-2-2-2-2-2-2-2-2------------------|
 D|--2-2-2-2-2-2-2-2-------------------2-2-2-2-2-2-2-2-2------------------|
 A|--0-0-0-0-0-0-0-0--3-3-3-3-3-3-3-3--0-0-0-0-0-0-0-0-0--3-3-3-3-3-3-3-3-|
 E|-------------------1-1-1-1-1-1-1-1---------------------1-1-1-1-1-1-1-1-|

 e|-----------------------------------------------------------------------|
 B|-----------------------------------------------------------------------|
 G|--2-2-2-2-2-2-2-2-------------------2-2-2-2-2-2-2-2-2------------------|
 D|--2-2-2-2-2-2-2-2-------------------2-2-2-2-2-2-2-2-2------------------|
 A|--0-0-0-0-0-0-0-0--3-3-3-3-3-3-3-3--0-0-0-0-0-0-0-0-0--3-3-3-3-3-3-3-3-|
 E|-------------------1-1-1-1-1-1-1-1---------------------1-1-1-1-1-1-1-1-|

   CHOURUS 1
  
   "Im not the only one who 
 e|-----------------------------------------------------------------------|
 B|-----------------------------------------------------------------------|
 G|-----------------------------------------------------------------------|
 D|---5-5-5-5-5-5-5-5-----------------2-2-2-2-2-2-2-2---------------------|
 A|---3-3-3-3-3-3-3-3-5-5-5-5-5-5-5-5-0-0-0-0-0-0-0-0-3-3-3-3-3-3-3-3-----|
 E|-------------------3-3-3-3-3-3-3-3-----------------1-1-1-1-1-1-1-1-----|

   
   Is not afraid of you"
 e|-----------------------------------------------------------------------|
 B|-----------------------------------------------------------------------|
 G|-----------------------------------------------------------------------|
 D|---5-5-5-5-5-5-5-5-----------------2-2-2-2-2-2-2-2---------------------|
 A|---3-3-3-3-3-3-3-3-5-5-5-5-5-5-5-5-0-0-0-0-0-0-0-0-3-3-3-3-3-3-3-3-----|
 E|-------------------3-3-3-3-3-3-3-3-----------------1-1-1-1-1-1-1-1-----|

   
    "Im not the only one who 
 e|-----------------------------------------------------------------------|
 B|-----------------------------------------------------------------------|
 G|-----------------------------------------------------------------------|
 D|---5-5-5-5-5-5-5-5-----------------2-2-2-2-2-2-2-2---------------------|
 A|---3-3-3-3-3-3-3-3-5-5-5-5-5-5-5-5-0-0-0-0-0-0-0-0-3-3-3-3-3-3-3-3-----|
 E|-------------------3-3-3-3-3-3-3-3-----------------1-1-1-1-1-1-1-1-----|


   Is not afraid of........
 e|-----------------------------------------------------------------------|
 B|-----------------------------------------------------------------------|
 G|-----------------------------------------------------------------------|
 D|---5-5-5-5-5-5-5-5-----------------2-2-2-2-2-2-2-2---------------------|
 A|---3-3-3-3-3-3-3-3-5-5-5-5-5-5-5-5-0-0-0-0-0-0-0-0-3-3-3-3-3-3-3-3-----|
 E|-------------------3-3-3-3-3-3-3-3-----------------1-1-1-1-1-1-1-1-----|

   YOU"!!!!!
 e|-----------------------------------------------------------------------|
 B|-----------------------------------------------------------------------|
 G|---------------------------7-7-7---------------------------------------|
 D|---------------------------5-5-5---------------------------------------|
 A|---5-5-4-5-5-4-5-5-4-5-5-----------------------------------------------|
 E|---3-3-2-3-3-2-3-3-2-3-3-----------------------------------------------|

   verse 2
 e|-----------------------------------------------------------------------|
 B|-----------------------------------------------------------------------|
 G|--2-2-2-2-2-2-2-2-------------------2-2-2-2-2-2-2-2-2------------------|
 D|--2-2-2-2-2-2-2-2-------------------2-2-2-2-2-2-2-2-2------------------|
 A|--0-0-0-0-0-0-0-0--3-3-3-3-3-3-3-3--0-0-0-0-0-0-0-0-0--3-3-3-3-3-3-3-3-|
 E|-------------------1-1-1-1-1-1-1-1---------------------1-1-1-1-1-1-1-1-|

 e|-----------------------------------------------------------------------|
 B|-----------------------------------------------------------------------|
 G|--2-2-2-2-2-2-2-2-------------------2-2-2-2-2-2-2-2-2------------------|
 D|--2-2-2-2-2-2-2-2-------------------2-2-2-2-2-2-2-2-2------------------|
 A|--0-0-0-0-0-0-0-0--3-3-3-3-3-3-3-3--0-0-0-0-0-0-0-0-0--3-3-3-3-3-3-3-3-|
 E|-------------------1-1-1-1-1-1-1-1---------------------1-1-1-1-1-1-1-1-| 

  CHOURUS 2

  "Im not the only one who 
 e|-----------------------------------------------------------------------|
 B|-----------------------------------------------------------------------|
 G|-----------------------------------------------------------------------|
 D|---5-5-5-5-5-5-5-5-----------------2-2-2-2-2-2-2-2---------------------|
 A|---3-3-3-3-3-3-3-3-5-5-5-5-5-5-5-5-0-0-0-0-0-0-0-0-3-3-3-3-3-3-3-3-----|
 E|-------------------3-3-3-3-3-3-3-3-----------------1-1-1-1-1-1-1-1-----|

   
   Is not afraid of you"
 e|-----------------------------------------------------------------------|
 B|-----------------------------------------------------------------------|
 G|-----------------------------------------------------------------------|
 D|---5-5-5-5-5-5-5-5-----------------2-2-2-2-2-2-2-2---------------------|
 A|---3-3-3-3-3-3-3-3-5-5-5-5-5-5-5-5-0-0-0-0-0-0-0-0-3-3-3-3-3-3-3-3-----|
 E|-------------------3-3-3-3-3-3-3-3-----------------1-1-1-1-1-1-1-1-----|


  "Im not the only one who 
 e|-----------------------------------------------------------------------|
 B|-----------------------------------------------------------------------|
 G|-----------------------------------------------------------------------|
 D|---5-5-5-5-5-5-5-5-----------------2-2-2-2-2-2-2-2---------------------|
 A|---3-3-3-3-3-3-3-3-5-5-5-5-5-5-5-5-0-0-0-0-0-0-0-0-3-3-3-3-3-3-3-3-----|
 E|-------------------3-3-3-3-3-3-3-3-----------------1-1-1-1-1-1-1-1-----|

   
   Is not afraid of........
 e|-----------------------------------------------------------------------|
 B|-----------------------------------------------------------------------|
 G|-----------------------------------------------------------------------|
 D|---5-5-5-5-5-5-5-5-----------------2-2-2-2-2-2-2-2---------------------|
 A|---3-3-3-3-3-3-3-3-5-5-5-5-5-5-5-5-0-0-0-0-0-0-0-0-3-3-3-3-3-3-3-3-----|
 E|-------------------3-3-3-3-3-3-3-3-----------------1-1-1-1-1-1-1-1-----|

   Reapeat Intro
   
   The homeless child is no roll she played.....
 e|-----------------------------------------------------------------------|
 B|-----------------------------------------------------------------------|
 G|-----------------------------------------------------------------------|
 D|---2-2-2-2-2-2-2-2--3-3-3-3-3-3-3-3--2-2-2-2-2-2-2-2--3-3-3-3-3-3-3-3--|
 A|---2-2-2-2-2-2-2-2--1-1-1-1-1-1-1-1--2-2-2-2-2-2-2-2--1-1-1-1-1-1-1-1--|
 E|---0-0-0-0-0-0-0-0-------------------0-0-0-0-0-0-0-0-------------------|
    pm...............                 pm...............

   
 e|-----------------------------------------------------------------------|
 B|-----------------------------------------------------------------------|
 G|-----------------------------------------------------------------------|
 D|---2-2-2-2-2-2-2-2--3-3-3-3-3-3-3-3--2-2-2-2-2-2-2-2--3-3-3-3-3-3-3-3--|
 A|---2-2-2-2-2-2-2-2--1-1-1-1-1-1-1-1--2-2-2-2-2-2-2-2--1-1-1-1-1-1-1-1--|
 E|---0-0-0-0-0-0-0-0-------------------0-0-0-0-0-0-0-0-------------------|
    pm...............                 pm...............

   When you shut up and you're shut down
 e|-----------------------------------------------------------------------|
 B|-----------------------------------------------------------------------|
 G|---------------------------7-7-7---------------------------------------|
 D|---------------------------5-5-5---------------------------------------|
 A|---5-5-4-5-5-4-5-5-4-5-5-----------------------------------------------|
 E|---3-3-2-3-3-2-3-3-2-3-3-----------------------------------------------|

   verse 3
 e|-----------------------------------------------------------------------|
 B|-----------------------------------------------------------------------|
 G|--2-2-2-2-2-2-2-2-------------------2-2-2-2-2-2-2-2-2------------------|
 D|--2-2-2-2-2-2-2-2-------------------2-2-2-2-2-2-2-2-2------------------|
 A|--0-0-0-0-0-0-0-0--3-3-3-3-3-3-3-3--0-0-0-0-0-0-0-0-0--3-3-3-3-3-3-3-3-|
 E|-------------------1-1-1-1-1-1-1-1---------------------1-1-1-1-1-1-1-1-|

 e|-----------------------------------------------------------------------|
 B|-----------------------------------------------------------------------|
 G|--2-2-2-2-2-2-2-2-------------------2-2-2-2-2-2-2-2-2------------------|
 D|--2-2-2-2-2-2-2-2-------------------2-2-2-2-2-2-2-2-2------------------|
 A|--0-0-0-0-0-0-0-0--3-3-3-3-3-3-3-3--0-0-0-0-0-0-0-0-0--3-3-3-3-3-------|
 E|-------------------1-1-1-1-1-1-1-1---------------------1-1-1-1-1-------|

  BASS PART
 
     "Im not the only one, you mother f**ker"

    Chourus 3

   "Im not the only one who 
 e|-----------------------------------------------------------------------|
 B|-----------------------------------------------------------------------|
 G|-----------------------------------------------------------------------|
 D|---5-5-5-5-5-5-5-5-----------------2-2-2-2-2-2-2-2---------------------|
 A|---3-3-3-3-3-3-3-3-5-5-5-5-5-5-5-5-0-0-0-0-0-0-0-0-3-3-3-3-3-3-3-3-----|
 E|-------------------3-3-3-3-3-3-3-3-----------------1-1-1-1-1-1-1-1-----|

   
   Is not afraid of you"
 e|-----------------------------------------------------------------------|
 B|-----------------------------------------------------------------------|
 G|-----------------------------------------------------------------------|
 D|---5-5-5-5-5-5-5-5-----------------2-2-2-2-2-2-2-2---------------------|
 A|---3-3-3-3-3-3-3-3-5-5-5-5-5-5-5-5-0-0-0-0-0-0-0-0-3-3-3-3-3-3-3-3-----|
 E|-------------------3-3-3-3-3-3-3-3-----------------1-1-1-1-1-1-1-1-----|

   
    "Im not the only one who 
 e|-----------------------------------------------------------------------|
 B|-----------------------------------------------------------------------|
 G|-----------------------------------------------------------------------|
 D|---5-5-5-5-5-5-5-5-----------------2-2-2-2-2-2-2-2---------------------|
 A|---3-3-3-3-3-3-3-3-5-5-5-5-5-5-5-5-0-0-0-0-0-0-0-0-3-3-3-3-3-3-3-3-----|
 E|-------------------3-3-3-3-3-3-3-3-----------------1-1-1-1-1-1-1-1-----|


   Is not afraid of........
 e|-----------------------------------------------------------------------|
 B|-----------------------------------------------------------------------|
 G|-----------------------------------------------------------------------|
 D|---5-5-5-5-5-5-5-5-----------------2-2-2-2-2-2-2-2---------------------|
 A|---3-3-3-3-3-3-3-3-5-5-5-5-5-5-5-5-0-0-0-0-0-0-0-0-3-3-3-3-3-3-3-3-----|
 E|-------------------3-3-3-3-3-3-3-3-----------------1-1-1-1-1-1-1-1-----|

   Reapeat intro last time

   yyyyyyyyyyyoooooooooooooooooooooooooooooooooooouuuuuuuuuuuuuuuuu"!!!!!!!!!!!!!!!!!
 e|-----------------------------------------------------------------------|
 B|-----------------------------------------------------------------------|
 G|-----------------------------------------------------------------------|
 D|---2-2-2-2-2-2-2-2--3-3-3-3-3-3-3-3--2-2-2-2-2-2-2-2--3-3-3-3-3-3-3-3--|
 A|---2-2-2-2-2-2-2-2--1-1-1-1-1-1-1-1--2-2-2-2-2-2-2-2--1-1-1-1-1-1-1-1--|
 E|---0-0-0-0-0-0-0-0-------------------0-0-0-0-0-0-0-0-------------------|
    pm...............                 pm...............

   
 e|-----------------------------------------------------------------------|
 B|-----------------------------------------------------------------------|
 G|-----------------------------------------------------------------------|
 D|---2-2-2-2-2-2-2-2--3-3-3-3-3-3-3-3--2-2-2-2-2-2-2-2--3-3-3-3-3-3-3-3--|
 A|---2-2-2-2-2-2-2-2--1-1-1-1-1-1-1-1--2-2-2-2-2-2-2-2--1-1-1-1-1-1-1-1--|
 E|---0-0-0-0-0-0-0-0-------------------0-0-0-0-0-0-0-0-------------------|
    pm...............                 pm...............

 e|-----------------------------------------------------------------------|
 B|-----------------------------------------------------------------------|
 G|--------------------------7-7-7--2-------------------------------------|
 D|--------------------------5-5-5--2-------------------------------------|
 A|---5-5-4-5-5-4-5-5-4-5-5---------0-------------------------------------|
 E|---3-3-2-3-3-2-3-3-2-3-3-----------------------------------------------|


  damm that took long, well if you have any corections just e-mail me at 
  laterz for now.
            
Hard to play? Try these video lessons and learn fast. | Correct




comments powered by Disqus
↑ Back to top | Tablatures and chords are parodies/interpretations of the original songs. You may use it for private study, scholarship, research or language learning purposes only