» » »

Rancid, I Am The One Tabs (ver.1)

Artists:  A B C D E F G H I J K L M N O P Q R S T U V W X Y Z # 

I Am The One Tabs (ver.1)

Rancid Tabs
 Rating:
4/5 (4 votes)
I Am The One lessons Tabs too difficult? Try these video lessons and learn fast
                Chris hickson
Hey I could only find chords for this so I tabbed it out this is how I play it and it is 99% accurate so enjoy
Intro:
E---------------
B---------------
G-------7--9--
A-7--5--7--9--4X
D-7--5--5--7--
E-5--3---------

BRIDGE: 
E----------------------
B----------------------
G-----999--77777--
A-77--777--77777--4X
D-55--777--55555--
E-55-------------------
     HEY, HEY, HEY

VERSE:
E-------------------------------------
B-------------------------------------
G--------------777777777---
A-77777777777--777777777---  4X
D-77777777777--555555555---
E-55555555555-------------------
   |--------|PM.
	WHAT ABOUT THE BANKS……..

CHORUS:
E---------------
B---------------
G-------7--9--
A-7--5--7--7-- 2X
D-7--5--5--7--
E-5--3---------

VERSE:
E---------------------------------
B---------------------------------
G--------------777777777---
A-77777777777--777777777---  4X
D-77777777777--555555555---
E-55555555555-----------------
   |--------| PM.
	BLEEDING AT THE GATES…….

CHORUS:
E---------------
B---------------
G-------7--9--
A-7--5--7--7--  2X
D-7--5--5--7--
E-5--3---------

BRIDGE: 
E---------------------
B---------------------
G-----999--77777--
A-77--777--77777-- 4X
D-55--777--55555--
E-55-----------------
     HEY, HEY, HEY

YEAH PART:
E-------------------------------------------
B-------------------------------------------
G--------77777--1010101010--99999--
A-77777--77777--1010101010--99999--    2X
D-77777--55555--0808080808--77777--
E-55555-----------------------------------

CHORUS:
E---------------
B---------------
G-------7--9--
A-7--5--7--7-- 2X
D-7--5--5--7--
E-5--3---------

OUTRO:
E--------------------
B--------------------
G-----999--77777--
A-77--777--77777--    4X
D-77--777--55555-- 
E-55-----------------
            
Submit corrections

comments powered by Disqus
↑ Back to top | Rancid Tabs for I Am The One. Lyrics for acoustic guitar and electric guitar. Tablatures and chords are parodies/interpretations of the original songs. You may use it for private study, scholarship, research or language learning purposes only