» » »

Harry Bridges Tabs (ver.1)

Artists:  A B C D E F G H I J K L M N O P Q R S T U V W X Y Z # 

Harry Bridges Tabs (ver.1)

Rancid
Rating:
0/5 (0 votes)

Hard to play? Try these video lessons and learn fast.
                Tuning: Standard

I wuv this song teehee
Note-I use 2 finger powerchords cuz....thats just what i do

Intro: (Im not positive about the number of times to strum, 
so listen to the CD. Also listen for strumming pattern)

    D    G    C    G    D
e:--2----3----0----3----2----
B:--3----0----1----0----3----
G:--2-X8-0-X8-0-X2-0-X2-2-X8-  Whole thing X 2
D:--0----0----2----0----0----
A:-------2----3----2---------
E:-------3---------3---------

Verse: (Same strumming pattern as intro w/ same amount of strums)
e:-------------
B:-------------
G:------------- 
D:--7---5---7--  X 4
A:--5-5-3-5-5--
E:----3---3----

Chorus: 
e:---------------------
B:---------------------
G:---------------------
D:--55--------77777777- X 4
A:--33-555555-55555555-
E:-----333333----------

Then do the verse again, but palm muted i believe. Guitar 2
does the intro in the background. Then do the chorus. Then do this odd solo...

Solo:
e:-------------------------------------------
B:--9b10-10-10-9b10-10-10-9b10-10-10-10-8-8--
G:-------------------------------------------  X 4
D:-------------------------------------------
A:-------------------------------------------
E:-------------------------------------------

Then do this odd thing...
e:--------------------
B:--------------------
G:--------------------
D:--------------------
A:--7~---3~---7~---3--
E:--5~---1~---5~---1--
The last powerchord has an odd palm mute pattern that i cant really get
so listen to the CD for it. 

Then do the chorus again and then ur done!!! OH GOODY!!!
Ok so please rate and/or correct this tab.
Gracias!!
TYLER
            
Hard to play? Try these video lessons and learn fast. | Correct




comments powered by Disqus
↑ Back to top | Tablatures and chords are parodies/interpretations of the original songs. You may use it for private study, scholarship, research or language learning purposes only