» » »

Rancid, Fall Back Down Tabs (ver.9)

Artists:  A B C D E F G H I J K L M N O P Q R S T U V W X Y Z # 

Fall Back Down Tabs (ver.9)

Rancid Tabs
 Rating:
4/5 (4 votes)
Fall Back Down lessons Tabs too difficult? Try these video lessons and learn fast
1
                Rancid - Fall Back Down

very good song... most of it is chords and since i hate chords i tabbed it all out.
i have both guitar parts. everything's in order so just follow the tab all the way
through.

standard tuning

key:

 / = slide up
 \ = slide down
 ~ = let it ring

and that's all you need to know for this song.

----------------------------------------------------------------------------
Guitar 1 (Tim)

intro (semi-clean)

E|-----------------------|
B|--9~---10~---10~---9~--|
G|--9~---11~----9~---9~--|
D|--9~---11~----7~---9~--|
A|--7~----9~----7~---7~--| (x4)
E|-----------------------|

verse (semi-clean)

E|--0~----2~----0~----0~--|
B|--0~----2~----2~----0~--|
G|--1~----2~----2~----1~--|
D|--2~----4~----2~----2~--|
A|--2~----4~----0~----2~--| (x1)
E|--0~----2~----0~----0~--|

E|--0~----2~----0~----2~----2~--|
B|--0~----2~----2~----4~----4~--|
G|--1~----2~----2~----4~----4~--|
D|--2~----4~----2~----4~----4~--|
A|--2~----4~----0~----2~----2~--| (x1)
E|--0~----2~----0~----2~----2~--|

chorus (distortion)

E|--0-000000--2-222222--0-000000--0-000000--|
B|--0-000000--2-222222--2-222222--0-000000--|
G|--1-111111--2-222222--2-222222--1-111111--|
D|--2-222222--4-444444--2-222222--2-222222--|
A|--2-222222--4-444444--0-000000--2-222222--| (x4)
E|--0-000000--2-222222--0-000000--0-000000--|

post-chorus (distortion)

E|----------------------------------------|
B|----------------------------------------|
G|--6-666666-6-666666--9-999999-9-999999--|
D|--6-666666-6-666666--9-999999-9-999999--|
A|--4-444444-4-444444--7-777777-7-777777--| (x1)
E|----------------------------------------|

E|----------------------------------------|
B|----------------------------------------|
G|--4-444444-4-444444--2-222222-2-222222--|
D|--4-444444-4-444444--2-222222-2-222222--|
A|--2-222222-2-222222--0-000000-0-000000--| (x1)
E|----------------------------------------|
*play this whole post chorus 2 times

solo (semi-clean)

E|---------------------------------------|
B|--9999-1010--9999-1010--9999-1010--9~--|
G|--9999-1111--9999-1111--9999-1111--9~--|
D|---------------------------------------|
A|---------------------------------------| (x1)
E|---------------------------------------|

E|-------------------------------------------------------|
B|--9999-1010/121212--10101010/121212--10101010\9999999--|
G|--9999-1111/131313--11111111/131313--11111111\9999999--|
D|-------------------------------------------------------|
A|-------------------------------------------------------| (x1)
E|-------------------------------------------------------|

E|--------------------------------------------------------|
B|--9/14-12-10-10/12\101010-999--9/14-12-10-10\9999999\8--|
G|--9/14-13-11-11/13\111111-999--9/14-13-11-11\9999999\8--|
D|--------------------------------------------------------|
A|--------------------------------------------------------| (x1)
E|--------------------------------------------------------|

E|---------------------------------------------------|
B|--9999-1010--9999-1010--12121212-10101010-9999999--|
G|--9999-1111--9999-1111--13131313-11111111-9999999--|
D|---------------------------------------------------|
A|---------------------------------------------------| (x1)
E|---------------------------------------------------|

verse (semi-clean)

E|--------2~----0~----0~--|
B|--9~----2~----2~----0~--|
G|--9~----2~----2~----1~--|
D|--9~----4~----2~----2~--|
A|--7~----4~----0~----2~--| (x1)
E|--0~----2~----0~----0~--|

E|--0~----2~----0~----2~----2~--|
B|--0~----2~----2~----4~----4~--|
G|--1~----2~----2~----4~----4~--|
D|--2~----4~----2~----4~----4~--|
A|--2~----4~----0~----2~----2~--| (x1)
E|--0~----2~----0~----2~----2~--|

chorus (distortion)

E|--0-000000--2-222222--0-000000--0-000000--|
B|--0-000000--2-222222--2-222222--0-000000--|
G|--1-111111--2-222222--2-222222--1-111111--|
D|--2-222222--4-444444--2-222222--2-222222--|
A|--2-222222--4-444444--0-000000--2-222222--| (x4)
E|--0-000000--2-222222--0-000000--0-000000--|

post-chorus/lars' solo (distortion)

E|----------------------------------------|
B|----------------------------------------|
G|--6-666666-6-666666--9-999999-9-999999--|
D|--6-666666-6-666666--9-999999-9-999999--|
A|--4-444444-4-444444--7-777777-7-777777--| (x1)
E|----------------------------------------|

E|----------------------------------------|
B|----------------------------------------|
G|--4-444444-4-444444--2-222222-2-222222--|
D|--4-444444-4-444444--2-222222-2-222222--|
A|--2-222222-2-222222--0-000000-0-000000--| (x1)
E|----------------------------------------|
*play this whole post chorus 2 times

bridge kinda chorus (distortion)

E|--0-0---2-2---0-0---0-0--|
B|--0-0---2-2---2-2---0-0--|
G|--1-1---2-2---2-2---1-1--|
D|--2-2---4-4---2-2---2-2--|
A|--2-2---4-4---0-0---2-2--| (x2)
E|--0-0---2-2---0-0---0-0--|

chorus (distortion)

E|--0-000000--2-222222--0-000000--0-000000--|
B|--0-000000--2-222222--2-222222--0-000000--|
G|--1-111111--2-222222--2-222222--1-111111--|
D|--2-222222--4-444444--2-222222--2-222222--|
A|--2-222222--4-444444--0-000000--2-222222--| (x6)
E|--0-000000--2-222222--0-000000--0-000000--|

outro (semi-clean)

E|-----------------------------------------------------|
B|--1212121212121212-1010101010101010-99999989~-999999-|
G|--1313131313131313-1111111111111111-99999989~-999999-|
D|-----------------------------------------------------|
A|-----------------------------------------------------| (x1)
E|-----------------------------------------------------|

E|-------------------------------------------------------|
B|--9/1212121212121212-1010101010101010-99999989~-999999-|
G|--9/1313131313131313-1111111111111111-99999989~-999999-|
D|-------------------------------------------------------|
A|-------------------------------------------------------| (x1)
E|-------------------------------------------------------|

E|---------------------------------------------------------|
B|--10101010-999-10101010-999-1010/1212\10-101010-9999999--|
G|--11111111-999-11111111-999-1111/1313\11-111111-9999999--|
D|---------------------------------------------------------|
A|---------------------------------------------------------| (x1)
E|---------------------------------------------------------|

E|--------------------------------------------------------------|
B|--10101010-999-10101010-10101010-12\10101010101010-999999998--|
G|--11111111-999-11111111-11111111-13\11111111111111-999999998--|
D|--------------------------------------------------------------|
A|--------------------------------------------------------------| (x1)
E|--------------------------------------------------------------|

end on

E------|
B--9~--|
G--9~--|
D------|
A------| (x1)
E------|

----------------------------------------------------------------------------
Guitar 2 (Lars)

intro (semi-clean)

E|-----------------------|
B|--9~---10~---10~---9~--|
G|--9~---11~----9~---9~--|
D|--9~---11~----7~---9~--|
A|--7~----9~----7~---7~--| (x4)
E|-----------------------|

verse (semi-clean)

E|--0~----2~----0~----0~--|
B|--0~----2~----2~----0~--|
G|--1~----2~----2~----1~--|
D|--2~----4~----2~----2~--|
A|--2~----4~----0~----2~--| (x1)
E|--0~----2~----0~----0~--|

E|--0~----2~----0~----2~----2~--|
B|--0~----2~----2~----4~----4~--|
G|--1~----2~----2~----4~----4~--|
D|--2~----4~----2~----4~----4~--|
A|--2~----4~----0~----2~----2~--| (x1)
E|--0~----2~----0~----2~----2~--|

chorus (distortion)

E|--0-000000--2-222222--0-000000--0-000000--|
B|--0-000000--2-222222--2-222222--0-000000--|
G|--1-111111--2-222222--2-222222--1-111111--|
D|--2-222222--4-444444--2-222222--2-222222--|
A|--2-222222--4-444444--0-000000--2-222222--| (x4)
E|--0-000000--2-222222--0-000000--0-000000--|

post-chorus (distortion)

E|----------------------------------------|
B|----------------------------------------|
G|--6-666666-6-666666--9-999999-9-999999--|
D|--6-666666-6-666666--9-999999-9-999999--|
A|--4-444444-4-444444--7-777777-7-777777--| (x1)
E|----------------------------------------|

E|----------------------------------------|
B|----------------------------------------|
G|--4-444444-4-444444--2-222222-2-222222--|
D|--4-444444-4-444444--2-222222-2-222222--|
A|--2-222222-2-222222--0-000000-0-000000--| (x1)
E|----------------------------------------|
*play this whole post chorus 2 times

during tim's solo (distortion)

E|--0-000000--2-222222--0-000000--0-000000--|
B|--0-000000--2-222222--2-222222--0-000000--|
G|--1-111111--2-222222--2-222222--1-111111--|
D|--2-222222--4-444444--2-222222--2-222222--|
A|--2-222222--4-444444--0-000000--2-222222--| (x4)
E|--0-000000--2-222222--0-000000--0-000000--|

verse (semi-clean)

E|--0~----2~----0~----0~--|
B|--0~----2~----2~----0~--|
G|--1~----2~----2~----1~--|
D|--2~----4~----2~----2~--|
A|--2~----4~----0~----2~--| (x1)
E|--0~----2~----0~----0~--|

E|--0~----2~----0~----2~----2~--|
B|--0~----2~----2~----4~----4~--|
G|--1~----2~----2~----4~----4~--|
D|--2~----4~----2~----4~----4~--|
A|--2~----4~----0~----2~----2~--| (x1)
E|--0~----2~----0~----2~----2~--|

chorus (distortion)

E|--0-000000--2-222222--0-000000--0-000000--|
B|--0-000000--2-222222--2-222222--0-000000--|
G|--1-111111--2-222222--2-222222--1-111111--|
D|--2-222222--4-444444--2-222222--2-222222--|
A|--2-222222--4-444444--0-000000--2-222222--| (x4)
E|--0-000000--2-222222--0-000000--0-000000--|

solo (heavy distortion)

E|---------------------------------------------------|
B|---------------------------------------------------|
G|---------------------------------------------------|
D|---------------------------------------------------|
A|--7p6-7p6-7~---9-7-6-7~---9-7-7-7p6~---6-6-6-6p4~--| (x2)
E|---------------------------------------------------|

bridge kinda chorus (distortion)

E|--0-0---2-2---0-0---0-0--|
B|--0-0---2-2---2-2---0-0--|
G|--1-1---2-2---2-2---1-1--|
D|--2-2---4-4---2-2---2-2--|
A|--2-2---4-4---0-0---2-2--| (x2)
E|--0-0---2-2---0-0---0-0--|

chorus (distortion)

E|--0-000000--2-222222--0-000000--0-000000--|
B|--0-000000--2-222222--2-222222--0-000000--|
G|--1-111111--2-222222--2-222222--1-111111--|
D|--2-222222--4-444444--2-222222--2-222222--|
A|--2-222222--4-444444--0-000000--2-222222--| (x10)
E|--0-000000--2-222222--0-000000--0-000000--|

end on 

E|--0~--|
B|--0~--|
G|--1~--|
D|--2~--|
A|--2~--| (x1)
E|--0~--|


and there you go... thats it. if you have any comments or questions you can e-mail me
            
Submit corrections

comments powered by Disqus
↑ Back to top | Rancid Tabs for Fall Back Down. Lyrics for acoustic guitar and electric guitar. 1 Tablatures and chords are parodies/interpretations of the original songs. You may use it for private study, scholarship, research or language learning purposes only