» » »

Rancid, Daily City Train Tabs (ver.1)

Artists:  A B C D E F G H I J K L M N O P Q R S T U V W X Y Z # 

Daily City Train Tabs (ver.1)

Rancid Tabs
 Rating:
4/5 (4 votes)
Daily City Train lessons Tabs too difficult? Try these video lessons and learn fast
1
                Verse: (repeated)    
G   F   C   G
E---3---1---3---3---
B---3---1---5---3---
G---4---2---5---4---
D---5---3---5---5---
A-------------------
E-------------------
Chorus: One guitar plays the chords, barred, and the lead guitar plays 
the riff. I believe the timing's right:    C   F   G
E-----------------------------------
B-----------------1-3b-3b-3s1-------
G---0---0---0---3-------------3-0---
D-----------------------------------
A-----------------------------------
E-----------------------------------
Solo: (2x)
E------------------------------------
B-----3--3-3-3-3-2------1------------
G-------------------2-2---2-2-2-2-0--
D--0---------------------------------
A------------------------------------
E------------------------------------
Bridge:    C   F   G     C   F   G  
E---3---1---3-----3---1---3--------------------------
B---5---1---3-----5---1---3--------------------------
G---5---2---4-----5---2---4---5----------------------
D---5---3---5-----5---3---5---5--3--5---3-3---5--3---
A-----------------------------3--3--5---3-3---5--3---
E--------------------------------1--3---1-1---3--1---
                              C  F  G   F F   G  F
            
Submit corrections

comments powered by Disqus
↑ Back to top | Rancid Tabs for Daily City Train. Lyrics for acoustic guitar and electric guitar. 1 Tablatures and chords are parodies/interpretations of the original songs. You may use it for private study, scholarship, research or language learning purposes only