» » »

Rancid, Black Derby Jacket Bass tabs (ver.1)

Artists:  A B C D E F G H I J K L M N O P Q R S T U V W X Y Z # 

Black Derby Jacket Bass tabs (ver.1)

Rancid Tabs
Rating:
5/5 (2 votes)
Black Derby Jacket lessons Tabs too difficult? Try these video lessons and learn fast
                - Rancid - Black Derby Jacket
- Pretty easy song to play, f**kin cool though. 

__________________

Intro – No bass

Verse [2x]
G|------------------------------------------------------------------|
D|------------------------------------------------------------------|
A|-----------------00000000000000543333333333333353-----------------|
E|-3333333333333333--------------------------------3333333333333333-|

Chorus
G|----------------------------|------|---------------------------|------|
D|-5555-777777-10101010-------|-[3x]-|-99999999-1010101010101010-|-[1x]-|
A|----------------------------|------|---------------------------|------|
E|---------------------333333-|------|---------------------------|------|

Bridge [2x]
G|-----7775----------------|
D|-5-5-----8-5-5-555-0-3-4-|
A|-------------------------|
E|-------------------------|

Verse [2x]
Chorus
Bridge [2x]
Verse [2x]

Chorus 
G|-7-7-77-9999-12-12-1212-7777-|------|---------------------------|------|
D|-5-5-55-7777-10-10-1010-5555-|-[3x]-|-99999999-1010101010101010-|-[1x]-|
A|-----------------------------|------|---------------------------|------|
E|-----------------------------|------|---------------------------|------|

Bridge [2x]

Ending
G|-----------|-------|
D|-----------|-[12x]-|
A|-------53--|-------|
E|-33333---5-|-------|
            
Submit corrections

comments powered by Disqus
↑ Back to top | Rancid Bass for Black Derby Jacket. Lyrics for acoustic guitar and electric guitar. Tablatures and chords are parodies/interpretations of the original songs. You may use it for private study, scholarship, research or language learning purposes only