» » »

Rancid, Battering Ram Tabs (ver.1)

Artists:  A B C D E F G H I J K L M N O P Q R S T U V W X Y Z # 

Battering Ram Tabs (ver.1)

Rancid Tabs
Rating:
0/5 (0 votes)
Battering Ram lessons Tabs too difficult? Try these video lessons and learn fast
                Tunning: standerd 
PM: palm mute
b: bend


           Well i've been board latly and have come to realize that there are no
        tabs for this song either..so ive been listening and listening to this song
        over and over and ive finally come up wih a decent match for this song so i
        hope this helps all you die-hard Rancid fans out there. Oh by the way i suggest 
        that you look for the lyrics for this song because i think this song is just
        briliantly writen and i give time armstrong and matt freeman extream props,
        so heres the tab for battering ram and i hope you enjoy it.





    INTRO
  e|----------------------------------------------------------------------------------|  
  B|----------------------------------------------------------------------------------| 
  G|----------------------------------------------------------------------------------|
  D|----------------------------------------------------------------------------------|
  A|--------------8-8-8-10-11-10-8-6----------------8-8-8-10-11-10-8-6----------------|
  E|---3b---------6-6-6-8--9--8--6-4-----3b---------6-6-6-8--9--8--6-4----------------|         
                pm..................              pm..................


  e|----------------------------------------------------------------------------------|  
  B|----------------------------------------------------------------------------------| 
  G|----------------------------------------------------------------------------------|
  D|----------------------------------------------------------------------------------|
  A|--------------8-8-8-10-11-10-8-6----------------8-8-8-10-11-10-8-6----------------|
  E|---3b---------6-6-6-8--9--8--6-4-----3b---------6-6-6-8--9--8--6-4----------------|         
                pm..................              pm..................

    drum starts
  e|----------------------------------------------------------------------------------|  
  B|----------------------------------------------------------------------------------| 
  G|----------------------------------------------------------------------------------|
  D|----------------------------------------------------------------------------------|
  A|--------------8-8-8-10-11-10-8-6----------------8-8-8-10-11-10-8-6----------------|
  E|---3b---------6-6-6-8--9--8--6-4-----3b---------6-6-6-8--9--8--6-4----------------|         
                pm..................              pm..................

                                                   yeeeeeaaaaaaaahhhhhh
  e|----------------------------------------------------------------------------------|  
  B|----------------------------------------------------------------------------------| 
  G|----------------------------------------------------------------------------------|
  D|----------------------------------------------------------------------------------|
  A|--------------8-8-8-10-11-10-8-6----------------8-8-8-8-8-8-8-8-------------------|
  E|---3b---------6-6-6-8--9--8--6-4-----3b---------6-6-6-6-6-6-6-6-------------------|         
                pm..................              
      vERSE 1
     
     Some people are rotten deep..........
  e|----------------------------------------------------------------------------|  
  B|----------------------------------------------------------------------------| 
  G|----------------------------------------------------------------------------|
  D|--------------------6-6-6-6-6-6-6-6-------------------6-6-6-6-6-6-6-6-------|
  A|---3-3-3-3-3-3-3-3--4-4-4-4-4-4-4-4--3-3-3-3-3-3-3-3--4-4-4-4-4-4-4-4-------|
  E|---1-1-1-1-1-1-1-1-------------------1-1-1-1-1-1-1-1------------------------| 

                                                            Battering Ram!
  e|----------------------------------------------------------------------------|  
  B|----------------------------------------------------------------------------| 
  G|----------------------------------------------------------------------------|
  D|--------------------6-6-6-6-6-6-6-6-------------------6-6-6-6-6-6-6-6-------|
  A|---3-3-3-3-3-3-3-3--4-4-4-4-4-4-4-4--3-3-3-3-3-3-3-3--4-4-4-4-4-4-4-4-------|
  E|---1-1-1-1-1-1-1-1-------------------1-1-1-1-1-1-1-1------------------------| 


  e|--------|  
  B|--------| 
  G|--------|    (MATTS PART) BEEN RUNNIN MY HOLE LIFE AND IM STILL RUNNIN  	
  D|---5----|
  A|---3----|
  E|--------|


     vERSE 2
   
     integrity is something you never had.......
  e|----------------------------------------------------------------------------|  
  B|----------------------------------------------------------------------------| 
  G|----------------------------------------------------------------------------|
  D|--------------------6-6-6-6-6-6-6-6-------------------6-6-6-6-6-6-6-6-------|
  A|---3-3-3-3-3-3-3-3--4-4-4-4-4-4-4-4--3-3-3-3-3-3-3-3--4-4-4-4-4-4-4-4-------|
  E|---1-1-1-1-1-1-1-1-------------------1-1-1-1-1-1-1-1------------------------|
 
                                                         i ain't stopping! 
  e|----------------------------------------------------------------------------|  
  B|----------------------------------------------------------------------------| 
  G|----------------------------------------------------------------------------|
  D|--------------------6-6-6-6-6-6-6-6-------------------6-6-6-6-6-6-6-6-------|
  A|---3-3-3-3-3-3-3-3--4-4-4-4-4-4-4-4--3-3-3-3-3-3-3-3--4-4-4-4-4-4-4-4-------|
  E|---1-1-1-1-1-1-1-1-------------------1-1-1-1-1-1-1-1------------------------| 

     cHOURUS

               battering ram........... right on right on right on right on thru to you
  e|----------------------------------------------------------------------------------|  
  B|----------------------------------------------------------------------------------| 
  G|----------------------------------------------------------------------------------|
  D|-----------8-8-8-8-3-3-3-3-3-3-3-3----------8-8-8-8-3-3-3-3-3-3-3-3---------------|
  A|---5-5-5-5-6-6-6-6-1-1-1-1-1-1-1-1--5-5-5-5-6-6-6-6-1-1-1-1-1-1-1-1---------------|
  E|---3-3-3-3--------------------------3-3-3-3---------------------------------------| 

               battering ram........... right on right on right on right on thru to you
  e|----------------------------------------------------------------------------------|  
  B|----------------------------------------------------------------------------------| 
  G|----------------------------------------------------------------------------------|
  D|-----------8-8-8-8-3-3-3-3-3-3-3-3----------8-8-8-8-3-3-3-3-3-3-3-3---------------|
  A|---5-5-5-5-6-6-6-6-1-1-1-1-1-1-1-1--5-5-5-5-6-6-6-6-1-1-1-1-1-1-1-1---------------|
  E|---3-3-3-3--------------------------3-3-3-3---------------------------------------|
 

      VERSE 3
       
      some people got no reliance..........
  e|----------------------------------------------------------------------------|  
  B|----------------------------------------------------------------------------| 
  G|----------------------------------------------------------------------------|
  D|--------------------6-6-6-6-6-6-6-6-------------------6-6-6-6-6-6-6-6-------|
  A|---3-3-3-3-3-3-3-3--4-4-4-4-4-4-4-4--3-3-3-3-3-3-3-3--4-4-4-4-4-4-4-4-------|
  E|---1-1-1-1-1-1-1-1-------------------1-1-1-1-1-1-1-1------------------------|
 
                                                           Battering Ram!
  e|----------------------------------------------------------------------------|  
  B|----------------------------------------------------------------------------| 
  G|----------------------------------------------------------------------------|
  D|--------------------6-6-6-6-6-6-6-6-------------------6-6-6-6-6-6-6-6-------|
  A|---3-3-3-3-3-3-3-3--4-4-4-4-4-4-4-4--3-3-3-3-3-3-3-3--4-4-4-4-4-4-4-4-------|
  E|---1-1-1-1-1-1-1-1-------------------1-1-1-1-1-1-1-1------------------------|



  e|--------|  
  B|--------| 
  G|--------|    (MATTS PART) BEEN RUNNIN MY HOLE LIFE AND IM STILL RUNNIN  	
  D|---5----|
  A|---3----|
  E|--------| 

     VERSE 4

      The man who talked sh*t i shut him down he's through.........
  e|----------------------------------------------------------------------------|  
  B|----------------------------------------------------------------------------| 
  G|----------------------------------------------------------------------------|
  D|--------------------6-6-6-6-6-6-6-6-------------------6-6-6-6-6-6-6-6-------|
  A|---3-3-3-3-3-3-3-3--4-4-4-4-4-4-4-4--3-3-3-3-3-3-3-3--4-4-4-4-4-4-4-4-------|
  E|---1-1-1-1-1-1-1-1-------------------1-1-1-1-1-1-1-1------------------------|
 
                                                          i ain't stopping!
  e|----------------------------------------------------------------------------|  
  B|----------------------------------------------------------------------------| 
  G|----------------------------------------------------------------------------|
  D|--------------------6-6-6-6-6-6-6-6-------------------6-6-6-6-6-6-6-6-------|
  A|---3-3-3-3-3-3-3-3--4-4-4-4-4-4-4-4--3-3-3-3-3-3-3-3--4-4-4-4-4-4-4-4-------|
  E|---1-1-1-1-1-1-1-1-------------------1-1-1-1-1-1-1-1------------------------|


     cHOURUS 2

               battering ram........... right on right on right on right on thru to you
  e|----------------------------------------------------------------------------------|  
  B|----------------------------------------------------------------------------------| 
  G|----------------------------------------------------------------------------------|
  D|-----------8-8-8-8-3-3-3-3-3-3-3-3----------8-8-8-8-3-3-3-3-3-3-3-3---------------|
  A|---5-5-5-5-6-6-6-6-1-1-1-1-1-1-1-1--5-5-5-5-6-6-6-6-1-1-1-1-1-1-1-1---------------|
  E|---3-3-3-3--------------------------3-3-3-3---------------------------------------| 

               battering ram........... right on right on right on right on thru to you
  e|----------------------------------------------------------------------------------|  
  B|----------------------------------------------------------------------------------| 
  G|----------------------------------------------------------------------------------|
  D|-----------8-8-8-8-3-3-3-3-3-3-3-3----------8-8-8-8-3-3-3-3-3-3-3-3---------------|
  A|---5-5-5-5-6-6-6-6-1-1-1-1-1-1-1-1--5-5-5-5-6-6-6-6-1-1-1-1-1-1-1-1---------------|
  E|---3-3-3-3--------------------------3-3-3-3---------------------------------------|


     SOLO 
                                     
                                    awww yeahh.....right on through
  e|---1-1-1-1-1-1-1-1--0-0-0-0-0-0-0-0--0-0-0-0-0-0-0-0------------------------------|  
  B|---1-1-1-1-1-1-1-1--1-1-1-1-1-1-1-1--1-1-1-1-1-1-1-1--3-3-3-3-3-3-3-3-------------| 
  G|---2-2-2-2-2-2-2-2--2-2-2-2-2-2-2-2--2-2-2-2-2-2-2-2--3-3-3-3-3-3-3-3-------------|
  D|------------------------------------------------------3-3-3-3-3-3-3-3-------------|
  A|----------------------------------------------------------------------------------|
  E|----------------------------------------------------------------------------------| 

                         awwwwwwawwwwwaaaaaaaa right on.. to f**king stop!
  e|---1-1-1-1-1-1-1-1--0-0-0-0-0-0-0-0--0-0-0-0-0-0-0-0------------------------------|  
  B|---1-1-1-1-1-1-1-1--1-1-1-1-1-1-1-1--1-1-1-1-1-1-1-1--3-3-3-3-3-3-3-3-------------| 
  G|---2-2-2-2-2-2-2-2--2-2-2-2-2-2-2-2--2-2-2-2-2-2-2-2--3-3-3-3-3-3-3-3-------------|
  D|------------------------------------------------------3-3-3-3-3-3-3-3-------------|
  A|----------------------------------------------------------------------------------|
  E|----------------------------------------------------------------------------------|


      INTRO 2
  e|----------------------------------------------------------------------------------|  
  B|----------------------------------------------------------------------------------| 
  G|----------------------------------------------------------------------------------|
  D|----------------------------------------------------------------------------------|
  A|--------------8-8-8-10-11-10-8-6----------------8-8-8-10-11-10-8-6----------------|
  E|---3b---------6-6-6-8--9--8--6-4-----3b---------6-6-6-8--9--8--6-4----------------|         
                pm..................              pm..................

          yeah                    f**ken you
  e|----------------------------------------------------------------------------------|  
  B|----------------------------------------------------------------------------------| 
  G|----------------------------------------------------------------------------------|
  D|----------------------------------------------------------------------------------|
  A|--------------8-8-8-10-11-10-8-6----------------8-8-8-10-11-10-8-6----------------|
  E|---3b---------6-6-6-8--9--8--6-4-----3b---------6-6-6-8--9--8--6-4----------------|         
                pm..................              pm..................

     VERSE 5

   Some people are rotten deep..........
  e|----------------------------------------------------------------------------|  
  B|----------------------------------------------------------------------------| 
  G|----------------------------------------------------------------------------|
  D|--------------------6-6-6-6-6-6-6-6-------------------6-6-6-6-6-6-6-6-------|
  A|---3-3-3-3-3-3-3-3--4-4-4-4-4-4-4-4--3-3-3-3-3-3-3-3--4-4-4-4-4-4-4-4-------|
  E|---1-1-1-1-1-1-1-1-------------------1-1-1-1-1-1-1-1------------------------| 

                                                          BATTERING RAAAAAAAAAMMMMMMMMM!
  e|----------------------------------------------------------------------------|  
  B|----------------------------------------------------------------------------| 
  G|----------------------------------------------------------------------------|
  D|--------------------6-6-6-6-6-6-6-6-------------------6-6-6-6-6-6-6-6-------|
  A|---3-3-3-3-3-3-3-3--4-4-4-4-4-4-4-4--3-3-3-3-3-3-3-3--4-4-4-4-4-4-4-4-------|
  E|---1-1-1-1-1-1-1-1-------------------1-1-1-1-1-1-1-1------------------------|

    cHOURUS 3

               battering ram........... right on right on right on right on thru to you
  e|----------------------------------------------------------------------------------|  
  B|----------------------------------------------------------------------------------| 
  G|----------------------------------------------------------------------------------|
  D|-----------8-8-8-8-3-3-3-3-3-3-3-3----------8-8-8-8-3-3-3-3-3-3-3-3---------------|
  A|---5-5-5-5-6-6-6-6-1-1-1-1-1-1-1-1--5-5-5-5-6-6-6-6-1-1-1-1-1-1-1-1---------------|
  E|---3-3-3-3--------------------------3-3-3-3---------------------------------------| 

               battering ram........... right on right on right on right on thru to you
  e|----------------------------------------------------------------------------------|  
  B|----------------------------------------------------------------------------------| 
  G|----------------------------------------------------------------------------------|
  D|-----------8-8-8-8-3-3-3-3-3-3-3-3----------8-8-8-8-3-3-3-3-3-3-3-3---------------|
  A|---5-5-5-5-6-6-6-6-1-1-1-1-1-1-1-1--5-5-5-5-6-6-6-6-1-1-1-1-1-1-1-1---------------|
  E|---3-3-3-3--------------------------3-3-3-3---------------------------------------|
 

  e|----------------------------------------------------------------------------------|  
  B|----------------------------------------------------------------------------------| 
  G|----------------------------------------------------------------------------------|
  D|---5--8-8-8-8-8-8-8-8--5--8-8-8-8-8-8-8-8--5--8-8-8-8-8-8-8-8--5--8-8-8-8-8-8-8-8-|
  A|---3--6-6-6-6-6-6-6-6--3--6-6-6-6-6-6-6-6--3--6-6-6-6-6-6-6-6--3--6-6-6-6-6-6-6-6-|
  E|----------------------------------------------------------------------------------|
 
    END
  e|-------|  
  B|-------| 
  G|-------|
  D|---5---|
  A|---5---|
  E|---3---| 
                                          THE END
        
     Well i hope this helps some people out.  For any coments or corrections then e-mail
            
Submit corrections

comments powered by Disqus
↑ Back to top | Rancid Tabs for Battering Ram. Lyrics for acoustic guitar and electric guitar. Tablatures and chords are parodies/interpretations of the original songs. You may use it for private study, scholarship, research or language learning purposes only