» » »

Rancid, Animosity Tabs (ver.1)

Artists:  A B C D E F G H I J K L M N O P Q R S T U V W X Y Z # 

Animosity Tabs (ver.1)

Rancid Tabs
 Rating:
4/5 (4 votes)
Animosity lessons Tabs too difficult? Try these video lessons and learn fast
1
                Band: Rancid
Albm: Rancid '93

Verse/Intro:
|------------------------------------|
|------------------------------------|
|-------------------------------5-7--|
|---7-7-7-7-7-7-7-7--6-6-6-6-6--5-7--|
|---7-7-7-7-7-7-7-7--6-6-6-6-6--3-5--|
|---5-5-5-5-5-5-5-5--4-4-4-4-4-------|

Do this four times for each verse.
On the fourth time, Tim tends to miss out the last 2 chords
and just carry the "4" powerchord on.

Chorus:
|-----------------------------------------------|
|-----------------------------------------------|
|--10-10-10-10---------------8-8-8-8------------|
|--10-10-10-10--10-10-10-10--8-8-8-8--8-8-8-8---|
|---8--8--8--8--10-10-10-10--6-6-6-6--8-8-8-8---|
|----------------8--8--8--8-----------6-6-6-6---|

Do this twice and then do this:

|-------------------------------------------|
|-------------------------------------------|
|--10-10-x-x-------------8-8-8-8------------|
|--10-10-x-x--10-10-x-x--8-8-8-8--8-8-8-8---|
|---8--8-x-x--10-10-x-x--6-6-6-6--8-8-8-8---|
|--------------8--8-x-x-----------6-6-6-6---|

Interlude 1:
|------------------------------|
|------------------------------|
|------------------------------|
|---7---------6-6-6-6-6-6-6-6--|
|---7---------6-6-6-6-6-6-6-6--|
|---5---------4-4-4-4-4-4-4-4--|

This is the "helicopters coming down on me tonight" bit.

Interlude 2:
|------------------------------------------------|
|------------------------------------------------|
|----------------------------------10-10-10-10---|
|---7-7-7-7--10-10-10-10--9-9-9-9--10-10-10-10---|
|---7-7-7-7--10-10-10-10--9-9-9-9---8--8--8--8---|
|---5-5-5-5---8--8--8--8--7-7-7-7----------------|

The first and second time this is played,
the chords are not played together
but are hit once and left to ring out.
Then the chords are strummed together.
After you've done this twice, Tim then screams Goodnight
and plays this:

|-----------------------------------|
|-----------------------------------|
|---9--------9-------9----9----9----|
|---9--------9-------9----9----9----|
|---7--------7-------7----7----7----|
|-----------------------------------|

Outro:
|-------------------------|
|-------------------------|
|------5--7--8--7--5------|
|---7--5--7--8--7--5--7---|
|---7--3--5--6--5--3--7---|
|---5-----------------5---|

Order:
Verse                  x4
Chorus                 x1
Verse                  x4
Chorus                 x1
Interlude 1            x2
Verse  (palm muted and without
last two chords)       x2
Chorus                 x1
Interlude 2
(faded chords)         x2
Interlude 2
(strummed chords)      x2
Goodnight!!            x1
Verse                  x4
Chorus                 x1
Outro                  x1


Please rate -x-
            
Submit corrections

comments powered by Disqus
↑ Back to top | Rancid Tabs for Animosity. Lyrics for acoustic guitar and electric guitar. 1 Tablatures and chords are parodies/interpretations of the original songs. You may use it for private study, scholarship, research or language learning purposes only