» » »

Ramones, Teenage Lobotomy Tabs (ver.1)

Artists:  A B C D E F G H I J K L M N O P Q R S T U V W X Y Z # 

Teenage Lobotomy Tabs (ver.1)

Ramones Tabs
Rating:
0/5 (0 votes)
Teenage Lobotomy lessons Tabs too difficult? Try these video lessons and learn fast
                I don't have time to give you the order but its an easy song you'll get the hang of it.

e|-------------------|
B|-------------------|
G|-9-11--------------|
D|-9-11-999999999999-|
A|-7-9--999999999999-|
E|------777777777777-|

e|----------|
B|----------|
G|-9-99-7---|
D|-9-99-7-7-|
A|-7-77-5-7-|
E|--------5-|

e|------------------|
B|------------------|
G|-----777777777777-|
D|-7-5-777777777777-|
A|-7-5-555555555555-|
E|-5-3--------------|

e|-----------------------------------|
B|-----------------------------------|
G|------------------9999999999999999-|
D|-7777777777777777-9999999999999999-|
A|-7777777777777777-7777777777777777-|
E|-5555555555555555------------------|
            

comments powered by Disqus
↑ Back to top | Ramones Tabs for Teenage Lobotomy. Lyrics for acoustic guitar and electric guitar. Tablatures and chords are parodies/interpretations of the original songs. You may use it for private study, scholarship, research or language learning purposes only