» » »

She's The One Tabs (ver.2)

Artists:  A B C D E F G H I J K L M N O P Q R S T U V W X Y Z # 

She's The One Tabs (ver.2)

Ramones
Rating:
0/5 (0 votes)

Tabs too difficult? Try these video lessons and learn fast.
                

Words and Music by Jeffrey Hyman (Joey), John Cummings (Johnny) & Douglas Colvin (Dee Dee)


Gtr I (E A D G B E) - 'Johnny Ramone - Rhythm w/dist (2 Gtrs. arr. for 1)'

Intro
  Q=190
 4/4
  Gtr I
  Q  Q  E E E E   Q  E E E E E E   Q  E E E E E E   Q  E E Q  E E
|-3--3--3-3-3---|----------------|-3--3-3-3-3-3---|---------------|
|-3--3--3-3-3-5-|-5--5-5-5-5-5-5-|-3--3-3-3-3-3-5-|-5--5-5-5--5-5-|
|-------------4-|-4--4-4-4-4-4-4-|--------------4-|-4--4-4-4--4-4-|
|-5--5--5-5-5-2-|-2--2-2-2-2-2-2-|-5--5-5-5-5-5-2-|-2--2-2-2--2-2-|
|-5--5--5-5-5-2-|-2--2-2-2-2-2-2-|-5--5-5-5-5-5-2-|-2--2-2-2--2-2-|
|-3--3--3-3-3-0-|-0--0-0-0-0-0-0-|-3--3-3-3-3-3-0-|-0--0-0-0--0-0-|


   Verses 1 + 2
    $
    Q  E E E E E E   Q  E E E E E E   Q  E E E E E E   Q  E E E E E E
||--3--3-3-3-3-3-3-|-3--3-3-3-3-3---|----------------|-----------------|
||o-3--3-3-3-3-3-3-|-3--3-3-3-3-3-5-|-5--5-5-5-5-5-5-|-5--5-5-5-5-5-x--|
||-----------------|--------------4-|-4--4-4-4-4-4-4-|-4--4-4-4-4-4-x--|
||--5--5-5-5-5-5-5-|-5--5-5-5-5-5-2-|-2--2-2-2-2-2-2-|-2--2-2-2-2-2-x--|
||o-5--5-5-5-5-5-5-|-5--5-5-5-5-5-2-|-2--2-2-2-2-2-2-|-2--2-2-2-2-2-x--|
||--3--3-3-3-3-3-3-|-3--3-3-3-3-3-0-|-0--0-0-0-0-0-0-|-0--0-0-0-0-0-x--|
 |-Rhy Fig 1                                             end Rhy Fig 1-|

Rhy Fig 1

 Chorus
  Q  E E E E E E   Q  E E E E E E   Q  E E E E E E   Q  E E E E E E
|-5--5-5-5-5-5-5-|-1--1-1-1-1-1-1-|-5--5-5-5-5-5-5-|-1--1-1-1-1-1-1-|
|-5--5-5-5-5-5-5-|-1--1-1-1-1-1-1-|-5--5-5-5-5-5-5-|-1--1-1-1-1-1-1-|
|----------------|----------------|----------------|----------------|
|-7--7-7-7-7-7-7-|-3--3-3-3-3-3-3-|-7--7-7-7-7-7-7-|-3--3-3-3-3-3-3-|
|-7--7-7-7-7-7-7-|-3--3-3-3-3-3-3-|-7--7-7-7-7-7-7-|-3--3-3-3-3-3-3-|
|-5--5-5-5-5-5-5-|-1--1-1-1-1-1-1-|-5--5-5-5-5-5-5-|-1--1-1-1-1-1-1-|
|-Rhy Fig 2


  Q  E E E E E E   Q  E E E E E E   Q  E E E E E E
|-3--3-3-3-3-3---|--------------5-|-5--5-5-5-5-5-5-|
|-3--3-3-3-3-3-5-|-5--5-5-5-5-5-5-|-5--5-5-5-5-5-5-|
|--------------4-|-4--4-4-4-4-4---|----------------|
|-5--5-5-5-5-5-2-|-2--2-2-2-2-2-7-|-7--7-7-7-7-7-7-|
|-5--5-5-5-5-5-2-|-2--2-2-2-2-2-7-|-7--7-7-7-7-7-7-|
|-3--3-3-3-3-3-0-|-0--0-0-0-0-0-5-|-5--5-5-5-5-5-5-|
                                     end Rhy Fig 2-|


  1.                 2.,D.S.
  Q  E E E E E E      Q  E E E E E E   Q  E E E E E E   Q  E E E E E E
|-----------------||-----------------|-3--3-3-3-3-3-3-|-3--3-3-3-3-3-3-||
|-7--7-7-7-7-7-7-o||--7--7-7-7-7-7-7-|-3--3-3-3-3-3-3-|-3--3-3-3-3-3-3-||
|-7--7-7-7-7-7-7--||--7--7-7-7-7-7-7-|----------------|----------------||
|-7--7-7-7-7-7-7--||--7--7-7-7-7-7-7-|-5--5-5-5-5-5-5-|-5--5-5-5-5-5-5-||
|-5--5-5-5-5-5-5-o||--5--5-5-5-5-5-5-|-5--5-5-5-5-5-5-|-5--5-5-5-5-5-5-||
|-----------------||-----------------|-3--3-3-3-3-3-3-|-3--3-3-3-3-3-3-||


   Bridge
   Rhy Fig 2 -> D.S.
	 
   Verse 3
   Rhy Fig 1 x2


 Chorus
  Rhy Fig 2
	
	
                    Out-Chorus
  Q  E E E E E E     Q  E E E E E E   Q  E E E E E E   Q  E E E E E E
|----------------||--3--3-3-3-3-3---|-3--3-3-3-3-3---|----------------|
|-7--7-7-7-7-7-7-||o-3--3-3-3-3-3-5-|-3--3-3-3-3-3-5-|-5--5-5-5-5-5-5-|
|-7--7-7-7-7-7-7-||---------------4-|--------------4-|-4--4-4-4-4-4-4-|
|-7--7-7-7-7-7-7-||--5--5-5-5-5-5-2-|-5--5-5-5-5-5-2-|-2--2-2-2-2-2-2-|
|-5--5-5-5-5-5-5-||o-5--5-5-5-5-5-2-|-5--5-5-5-5-5-2-|-2--2-2-2-2-2-2-|
|----------------||--3--3-3-3-3-3-0-|-3--3-3-3-3-3-0-|-0--0-0-0-0-0-0-|


                  1.,2.,3.            4.
  Q  E E E E E E   Q  E E E E E E      Q  E E E E E E   W
|-5--5-5-5-5-5-5-|-----------------||-----------------|-3----*|
|-5--5-5-5-5-5-5-|-7--7-7-7-7-7-7-o||--7--7-7-7-7-7-7-|-3----*|
|----------------|-7--7-7-7-7-7-7--||--7--7-7-7-7-7-7-|------*|
|-7--7-7-7-7-7-7-|-7--7-7-7-7-7-7--||--7--7-7-7-7-7-7-|-5----*|
|-7--7-7-7-7-7-7-|-5--5-5-5-5-5-5-o||--5--5-5-5-5-5-5-|-5----*|
|-5--5-5-5-5-5-5-|-----------------||-----------------|-3----*|
            
Tabs too difficult? Try these video lessons and learn fast.


comments powered by Disqus
↑ Back to top | Tablatures and chords are parodies/interpretations of the original songs. You may use it for private study, scholarship, research or language learning purposes only