» » »

Ramones, Pinhead Tabs (ver.1)

Artists:  A B C D E F G H I J K L M N O P Q R S T U V W X Y Z # 

Pinhead Tabs (ver.1)

Ramones Tabs
Rating:
0/5 (0 votes)
Pinhead lessons Tabs too difficult? Try these video lessons and learn fast
                PROPS GO TO: The Hang-glider

Intro/Pre-Chorus Riff:
e-------------------------------
B-------------------------------
G---------------------9-11------
D-9-11-11-11-11-11-11-9-11-9-11-
A-9-11-11-11-11-11-11-7-9--9-11-
E-7/9--9--9--9--9--9-------7-9--

Verse                   
e-----------------------
B-----------------------
G-------------------7-9-
D-7-9-9-9-9--9--7-9-7-9-
A-7-9-9-9-9--9--7-9-5-7-
E-5/7-7-7-7--7--5-7-----
  I don't wanna...

Post-Verse
e--------------------------------
B--------------------------------
G-9-9-9-9-9-9-9-9-9-9-9-9-9-9-9-9
D-9-9-9-9-9-9-9-9-9-9-9-9-9-9-9-9
A-7-7-7-7-7-7-7-7-7-7-7-7-7-7-7-7
E--------------------------------

Chorus
e--------------------------------
B--------------------------------
G--------------7-----------------
D-9-9-9-9-9-9--7--7-7-7-7-7-7--4-
A-9-9-9-9-9-9--5--7-7-7-7-7-7--4-
E-7-7-7-7-7-7-----5-5-5-5-5-5--2-
  Gabba, gabba, hey...

Song Order
Intro/Pre-chorus x4
Verse x4 
Post-Verse x1
Intro/Pre-Chorus x4
Chorus x2
Verse x1
Rest (D-U-M-B...)
Verse x1
Rest (D-U-M-B...)
Post Verse x1
Intro/Pre-Chorus x4
Chorus (repeat and fade out)

Lyrics
I don't wanna be a pinhead no more
I just met a nurse that I could go for
I don't wanna be a pinhead no more
I just met a nurse that I could go for

D-U-M-B, everyone's accusing me
D-U-M-B, everyone's accusing me

Gabba, gabba, hey
            
Submit corrections

comments powered by Disqus
↑ Back to top | Ramones Tabs for Pinhead. Lyrics for acoustic guitar and electric guitar. Tablatures and chords are parodies/interpretations of the original songs. You may use it for private study, scholarship, research or language learning purposes only