» » »

Palisades Park Tabs (ver.2)

Artists:  A B C D E F G H I J K L M N O P Q R S T U V W X Y Z # 

Palisades Park Tabs (ver.2)

Ramones
Rating:
0/5 (0 votes)

Hard to play? Try these video lessons and learn fast.
                Palisades Park
By The Ramones
On The Album Brain Drain


The intro
e|--------------------------------------------------|
B|--------------------------------------------------|
G|--------------------------------------------------|
D|-10-9-8-7------------------7-6-5-4----------------|
A|----------11-10-9h10-9h10----------8-7-6h7-6h7----|
E|--------------------------------------------------|

Verse
e|--------------------------------------------------|
B|--------------------------------------------------|
G|--------------------------5------7----------------|
D|--5-5-5-5---------2-------5-same-7same------------|
A|--5-5-5-5--times4-2-same -3------5----------------|
E|--3-3-3-3---------0-------------------------------|


Pre-Chorus
e|--------------------------------------------------|
B|--------------------------------------------------|
G|--5-5-5-5----------------5------7-----------------|
D|--5-5-5-5-times4-2-------5-same-7-same------------|
A|--3-3-3-3--------2-same--3------5-----------------|
E|-----------------0--------------------------------|

Intro
Verse
Prechorus
Chorus (verse followed by prechorus)
Intro
Small solo
Verse
Prechorus
Chorus
Intro fades out
            
Hard to play? Try these video lessons and learn fast. | Correct




comments powered by Disqus
↑ Back to top | Tablatures and chords are parodies/interpretations of the original songs. You may use it for private study, scholarship, research or language learning purposes only