» » »

Ramones, Lifes A Gas Tabs (ver.2)

Artists:  A B C D E F G H I J K L M N O P Q R S T U V W X Y Z # 

Lifes A Gas Tabs (ver.2)

Ramones Tabs
Rating:
0/5 (0 votes)
Hard to play? Try these video lessons and learn fast.
                TITLE : LIFE'S A GAS
ALBUM : Adios Amigos

STANDARD TUNE... when you do the strums, make sure to sturm only down.

guitar tab by Sanchir Enkhmend


enjoy!


INTRO

e|---------------------------------------------------------------------------|
B|---------------------------------------------------------------------------|
G|-------------------9-9-9-9--7-7-7-7--5-5-5-5-5-5-5-5--7-7-7-7-7-7-7-7------|
D|-5-5-5-5--5-5-5-5--9-9-9-9--7-7-7-7--5-5-5-5-5-5-5-5--7-7-7-7-7-7-7-7------|
A|-5-5-5-5--5-5-5-5--7-7-7-7--5-5-5-5--3-3-3-3-3-3-3-3--5-5-5-5-5-5-5-5------|
E|-3-3-3-3--2-2-2-2----------------------------------------------------------| x2

e|---------------------------------------------------------------------------|
B|---------------------------------------------------------------------------|
G|-5-5-5-5-5-5-5-5--7-7-7-7-7-7-7-7--5-5-5-5-5-5-5-5--7-7-7-7-7-7-7-7--------|
D|-5-5-5-5-5-5-5-5--7-7-7-7-7-7-7-7--5-5-5-5-5-5-5-5--7-7-7-7-7-7-7-7--------|
A|-3-3-3-3-3-3-3-3--5-5-5-5-5-5-5-5--3-3-3-3-3-3-3-3--5-5-5-5-5-5-5-5--------|
E|---------------------------------------------------------------------------|


VERSE

e|---------------------------------------------------------------------------|
B|---------------------------------------------------------------------------|
G|---------------------------------------------------------------------------|
D|-5-5-5-5-5-5-5-5--2-2-2-2-2-2-2-2--5-5-5-5-5-5-5-5--2-2-2-2-2-2-2-2--------|
A|-5-5-5-5-5-5-5-5--2-2-2-2-2-2-2-2--5-5-5-5-5-5-5-5--2-2-2-2-2-2-2-2--------|
E|-3-3-3-3-3-3-3-3--0-0-0-0-0-0-0-0--3-3-3-3-3-3-3-3--0-0-0-0-0-0-0-0--------|


e|---------------------------------------------------------------------------|
B|---------------------------------------------------------------------------|
G|-------------------------------------6-7-7-7-7-7-7-7--6-7-7-7-7-7-7-7------|
D|-10101010-10101010-7-7-7-7--5-5-5-5--6-7-7-7-7-7-7-7--6-7-7-7-7-7-7-7------|
A|-10101010-10101010-7-7-7-7--5-5-5-5--4-5-5-5-5-5-5-5--4-5-5-5-5-5-5-5------|
E|-8-8-8-8--7-7-7-7--5-5-5-5--3-3-3-3----------------------------------------| x2


CHORUS
e|---------------------------------------------------------------------------|
B|---------------------------------------------------------------------------|
G|-5-5-5-5-5-5-5-5--7-7-7-7-7-7-7-7--9-9-9-9-9-9-9-9-------------------------|
D|-5-5-5-5-5-5-5-5--7-7-7-7-7-7-7-7--9-9-9-9-9-9-9-9--5-5-5-5-5-5-5-5--------|
A|-3-3-3-3-3-3-3-3--5-5-5-5-5-5-5-5--7-7-7-7-7-7-7-7--5-5-5-5-5-5-5-5--------|
E|----------------------------------------------------3-3-3-3-3-3-3-3--------|

e|---------------------------------------------------------------------------|
B|---------------------------------------------------------------------------|
G|-5-5-5-5-5-5-5-5--5-5-5-5-5-5-5-5--7-7-7-7-7-7-7-7--7-7-7-7-7-7-7-7--------|
D|-5-5-5-5-5-5-5-5--5-5-5-5-5-5-5-5--7-7-7-7-7-7-7-7--7-7-7-7-7-7-7-7--------|
A|-3-3-3-3-3-3-3-3--3-3-3-3-3-3-3-3--5-5-5-5-5-5-5-5--5-5-5-5-5-5-5-5--------|
E|---------------------------------------------------------------------------|


VERSE

e|---------------------------------------------------------------------------|
B|---------------------------------------------------------------------------|
G|---------------------------------------------------------------------------|
D|-5-5-5-5-5-5-5-5--2-2-2-2-2-2-2-2--5-5-5-5-5-5-5-5--2-2-2-2-2-2-2-2--------|
A|-5-5-5-5-5-5-5-5--2-2-2-2-2-2-2-2--5-5-5-5-5-5-5-5--2-2-2-2-2-2-2-2--------|
E|-3-3-3-3-3-3-3-3--0-0-0-0-0-0-0-0--3-3-3-3-3-3-3-3--0-0-0-0-0-0-0-0--------|


e|---------------------------------------------------------------------------|
B|---------------------------------------------------------------------------|
G|-------------------------------------6-7-7-7-7-7-7-7--6-7-7-7-7-7-7-7------|
D|-10101010-10101010-7-7-7-7--5-5-5-5--6-7-7-7-7-7-7-7--6-7-7-7-7-7-7-7------|
A|-10101010-10101010-7-7-7-7--5-5-5-5--4-5-5-5-5-5-5-5--4-5-5-5-5-5-5-5------|
E|-8-8-8-8--7-7-7-7--5-5-5-5--3-3-3-3----------------------------------------| x2


CHORUS
e|---------------------------------------------------------------------------|
B|---------------------------------------------------------------------------|
G|-5-5-5-5-5-5-5-5--7-7-7-7-7-7-7-7--9-9-9-9-9-9-9-9-------------------------|
D|-5-5-5-5-5-5-5-5--7-7-7-7-7-7-7-7--9-9-9-9-9-9-9-9--5-5-5-5-5-5-5-5--------|
A|-3-3-3-3-3-3-3-3--5-5-5-5-5-5-5-5--7-7-7-7-7-7-7-7--5-5-5-5-5-5-5-5--------|
E|----------------------------------------------------3-3-3-3-3-3-3-3--------|

e|---------------------------------------------------------------------------|
B|---------------------------------------------------------------------------|
G|-5-5-5-5-5-5-5-5--5-5-5-5-5-5-5-5--7-7-7-7-7-7-7-7--7-7-7-7-7-7-7-7--------|
D|-5-5-5-5-5-5-5-5--5-5-5-5-5-5-5-5--7-7-7-7-7-7-7-7--7-7-7-7-7-7-7-7--------|
A|-3-3-3-3-3-3-3-3--3-3-3-3-3-3-3-3--5-5-5-5-5-5-5-5--5-5-5-5-5-5-5-5--------|
E|---------------------------------------------------------------------------|




e|---------------------------------------------------------------------------|
B|---------------------------------------------------------------------------|
G|---------------------------------------------------------------------------|
D|-5-5-5-5-5-5-5-5--2-2-2-2-2-2-2-2--5-5-5-5-5-5-5-5--2-2-2-2-2-2-2-2--------|
A|-5-5-5-5-5-5-5-5--2-2-2-2-2-2-2-2--5-5-5-5-5-5-5-5--2-2-2-2-2-2-2-2--------|
E|-3-3-3-3-3-3-3-3--0-0-0-0-0-0-0-0--3-3-3-3-3-3-3-3--0-0-0-0-0-0-0-0--------|

e|---------------------------------------------------------------------------|
B|---------------------------------------------------------------------------|
G|-------------------------------------6-7-7-6-7-7-7-7--6-7-7-6-7-7-7-7------|
D|-10101010-10101010-7-7-7-7--5-5-5-5--6-7-7-6-7-7-7-7--6-7-7-6-7-7-7-7------|
A|-10101010-10101010-7-7-7-7--5-5-5-5--4-5-5-4-5-5-5-5--4-5-5-4-5-5-5-5------|
E|-8-8-8-8--7-7-7-7--5-5-5-5--3-3-3-3----------------------------------------|


e|---------------------------------------------------------------------------|
B|---------------------------------------------------------------------------|
G|---------------------------------------------------------------------------|
D|-5-5-5-5-5-5-5-5--2-2-2-2-2-2-2-2--5-5-5-5-5-5-5-5--2-2-2-2-2-2-2-2--------|
A|-5-5-5-5-5-5-5-5--2-2-2-2-2-2-2-2--5-5-5-5-5-5-5-5--2-2-2-2-2-2-2-2--------|
E|-3-3-3-3-3-3-3-3--0-0-0-0-0-0-0-0--3-3-3-3-3-3-3-3--0-0-0-0-0-0-0-0--------|

e|---------------------------------------------------------------------------|
B|---------------------------------------------------------------------------|
G|-------------------------------------6-7-7-7-7-7-7-7--6-7-7-7-7-7-7-7------|
D|-10101010-10101010-7-7-7-7--5-5-5-5--6-7-7-7-7-7-7-7--6-7-7-7-7-7-7-7------|
A|-10101010-10101010-7-7-7-7--5-5-5-5--4-5-5-5-5-5-5-5--4-5-5-5-5-5-5-5------|
E|-8-8-8-8--7-7-7-7--5-5-5-5--3-3-3-3----------------------------------------|


CHORUS

e|---------------------------------------------------------------------------|
B|---------------------------------------------------------------------------|
G|-5-5-5-5-5-5-5-5--7-7-7-7-7-7-7-7--9-9-9-9-9-9-9-9-------------------------|
D|-5-5-5-5-5-5-5-5--7-7-7-7-7-7-7-7--9-9-9-9-9-9-9-9--5-5-5-5-5-5-5-5--------|
A|-3-3-3-3-3-3-3-3--5-5-5-5-5-5-5-5--7-7-7-7-7-7-7-7--5-5-5-5-5-5-5-5--------|
E|----------------------------------------------------3-3-3-3-3-3-3-3--------|

e|---------------------------------------------------------------------------|
B|---------------------------------------------------------------------------|
G|-5-5-5-5-5-5-5-5--5-5-5-5-5-5-5-5--7-7-7-7-7-7-7-7--7-7-7-7-7-7-7-7--------|
D|-5-5-5-5-5-5-5-5--5-5-5-5-5-5-5-5--7-7-7-7-7-7-7-7--7-7-7-7-7-7-7-7--------|
A|-3-3-3-3-3-3-3-3--3-3-3-3-3-3-3-3--5-5-5-5-5-5-5-5--5-5-5-5-5-5-5-5--------|
E|---------------------------------------------------------------------------|


OUTRO


e|---------------------------------------------------------------------------|
B|---------------------------------------------------------------------------|
G|-------------------9-9-9-9--7-7-7-7--5-5-5-5-5-5-5-5--7-7-7-7-7-7-7-7------|
D|-5-5-5-5--5-5-5-5--9-9-9-9--7-7-7-7--5-5-5-5-5-5-5-5--7-7-7-7-7-7-7-7------|
A|-5-5-5-5--5-5-5-5--7-7-7-7--5-5-5-5--3-3-3-3-3-3-3-3--5-5-5-5-5-5-5-5------|
E|-3-3-3-3--2-2-2-2----------------------------------------------------------| x bunch of times
            

comments powered by Disqus
↑ Back to top | Ramones Tabs for Lifes A Gas. Lyrics for acoustic guitar and electric guitar. Tablatures and chords are parodies/interpretations of the original songs. You may use it for private study, scholarship, research or language learning purposes only