» » »

Ramones, Commando Tabs (ver.2)

Artists:  A B C D E F G H I J K L M N O P Q R S T U V W X Y Z # 

Commando Tabs (ver.2)

Ramones Tabs
 Rating:
4/5 (4 votes)
Commando lessons Tabs too difficult? Try these video lessons and learn fast
                Ramones - Commando



Intro/Chorus:

e--------------------------------------------------------------------
b--------------------------------------------------------------------
g---6--6--6-6-6-6---9--9--9-9-9-9------------------------------------
d---6--6--6-6-6-6---9--9--9-9-9-9---7--7--7-7-7-7---9--9--9-9-9-9----
a---4--4--4-4-4-4---7--7--7-7-7-7---7--7--7-7-7-7---9--9--9-9-9-9----
e-----------------------------------5--5--5-5-5-5---7--7--7-7-7-7----


Verse:
               4x               2x
e---------------- ----------------
b---------------- ----------------
g---------------- --9--1111-11----
d---9--1111-11--- --9--1111-11----
a---9--1111-11--- --7---9-9--9----
e---7---9-9--9--- ----------------


2nd Verse:
              2x              4x               2x
e--------------- --------------- ----------------
b--------------- --------------- ----------------
g--9--1111-11--- --------------- --9--1111-11----
d--9--1111-11--- --9--1111-11--- --9--1111-11----
a--7---9-9--9--- --9--1111-11--- --7---9-9--9----
e--------------- --7---9-9--9--- ----------------


Outro:
               2x               4x
e---------------- ---------------- -----
b---------------- ---------------- -----
g---9--1111-11--- ---------------- --7--
d---9--1111-11--- ---9--1111-11--- --7--
a---7---9-9--9--- ---9--1111-11--- --5--
e---------------- ---7---9-9--9--- -----


Song Structure:

1. Intro    (2x)
2. Verse    (3x)
3. Chorus   (4x)
4. 2nd Verse(3x)
5. Chorus   (4x)
6. Outro
            
Submit corrections

comments powered by Disqus
↑ Back to top | Ramones Tabs for Commando. Lyrics for acoustic guitar and electric guitar. Tablatures and chords are parodies/interpretations of the original songs. You may use it for private study, scholarship, research or language learning purposes only