» » »

Friends And Traitors Tabs (ver.1)

Artists:  A B C D E F G H I J K L M N O P Q R S T U V W X Y Z # 

Friends And Traitors Tabs (ver.1)

Raised Fist
Rating:
0/5 (0 votes)

Hard to play? Try these video lessons and learn fast.
                Hey everyone, my first tab ever. haven't found any dec tabs for this song. so i thought 
right my own. might not be all right but its sounds alright. corrections welcome


intro/Chorus
|----------------------------------------------------------------|
|----------------------------------------------------------------|
|-----77--77--7--1010--1010--10---------------------------------.|
|-----77--77--7--8-8---8-8---8---8-8---8-8---8---55--1010--10---.|
|-----55--55--5--8-8---8-8---8---1010--1010--10--55--1010--10----|
|---00--00--00--0----00----00--0-8-8-008-8-008--0550010100010----|

verse
|----------------------------------------------------------------|
|----------------------------------------------------------------|
|---------------------------------------------------------------.|
|---------------------------------------------------------------.|
|-----0000--0000--0--3333--3333--3--0000--0000--0----------------|
|---00----00----00-33----33----33-00----00----00-336666336666655-|


Drum solo
|----------------------------------------------------------------|
|----------------------------------------------------------------|
|---------------------------------------------------------------.|
|---000---333---------------------------------------------------.|
|---000---333----------------------------------------------------|
|---000---333----------------------------------------------------|


intro x2

verse x4

chorus x2

verse x4

chorus x2

Drum solo x4

chorus x2 building volume

Chorus x4
            
Hard to play? Try these video lessons and learn fast. | Correct




comments powered by Disqus
↑ Back to top | Tablatures and chords are parodies/interpretations of the original songs. You may use it for private study, scholarship, research or language learning purposes only