» » »

Raised Fist, Breaking Me Up Tabs (ver.2)

Artists:  A B C D E F G H I J K L M N O P Q R S T U V W X Y Z # 

Breaking Me Up Tabs (ver.2)

Raised Fist Tabs
 Rating:
4/5 (4 votes)
Breaking Me Up lessons Tabs too difficult? Try these video lessons and learn fast
                Tuning: Drop C : ( Low To High ) C, G, C, F, A, d

I saw these guys in concert and it they were AMAZING.  Best show I've ever been to.

This is a really sweet song.  This is in Drop C just like all of their other songs ( the didn't re-tune when I saw them in concert ).  Here it is.

Drum Intro


d------------------------------------------------
A------------------------------------------------
F------------------------------------------------
C--12-12-12-12--15-15-15-15--8-8-8-8-8-8-8-8-----
G--12-12-12-12--15-15-15-15--8-8-8-8-8-8-8-8-----
C--12-12-12-12--15-15-15-15--8-8-8-8-8-8-8-8----- x2

d------------------------------------------------
A------------------------------------------------
F------------------------------------------------
C--12-12-12-12--15-15-15-15--8-8-8-8-8-8-15-10---
G--12-12-12-12--15-15-15-15--8-8-8-8-8-8-15-10---
C--12-12-12-12--15-15-15-15--8-8-8-8-8-8-15-10--- x2 ( Palm muted )


d------------------------------------------------
A------------------------------------------------
F------------------------------------------------
C--12-12-12-12--15-15-15-15--8-8-8-8-8-8-8-8-----
G--12-12-12-12--15-15-15-15--8-8-8-8-8-8-8-8-----
C--12-12-12-12--15-15-15-15--8-8-8-8-8-8-8-8----- x2

d------------------------------------------------
A------------------------------------------------
F------------------------------------------------
C--12-12-12-12--15-15-15-15--8-8-8-8-8-8-15-10---
G--12-12-12-12--15-15-15-15--8-8-8-8-8-8-15-10---
C--12-12-12-12--15-15-15-15--8-8-8-8-8-8-15-10--- x2 ( Palm muted )

Verse

Chorus


d------------------------------------------------
A------------------------------------------------
F------------------------------------------------
C--12-12-12-12--12-12-12-12--15-15-10-10---------
G--12-12-12-12--12-12-12-12--15-15-10-10---------
C--12-12-12-12--12-12-12-12--15-15-10-10---------

d------------------------------------------------
A------------------------------------------------
F------------------------------------------------
C--12-12-12-12--12-12-12-12--8-8-7-7-------------
G--12-12-12-12--12-12-12-12--8-8-7-7-------------
C--12-12-12-12--12-12-12-12--8-8-7-7------------- x2

d------------------------------------------------
A------------------------------------------------
F------------------------------------------------
C-----0-3-2-3---3---2----------------------------
G--0----------1---0------------------------------
C--0--------------------------------------------- x4

d------------------------------------------------
A------------------------------------------------
F------------------------------------------------
C--0-0-0-0--0-0-0-0--0-12-0-12-0-12-0-12---------
G--0-0-0-0--0-0-0-0--0-12-0-12-0-12-0-12---------
C--0-0-0-0--0-0-0-0--0-12-0-12-0-12-0-12--------- x2

Verse

Chorus

d------------------------------------------------
A------------------------------------------------
F------------------------------------------------
C--12-12-12-12--12-12-12-12--15-15-10-10---------
G--12-12-12-12--12-12-12-12--15-15-10-10---------
C--12-12-12-12--12-12-12-12--15-15-10-10---------

d------------------------------------------------
A------------------------------------------------
F------------------------------------------------
C--12-12-12-12--12-12-12-12--8-8-7-7-------------
G--12-12-12-12--12-12-12-12--8-8-7-7-------------
C--12-12-12-12--12-12-12-12--8-8-7-7------------- x2

d------------------------------------------------
A------------------------------------------------
F------------------------------------------------
C--0---------------------------------------------
G--0---------------------------------------------
C--0---------------------------------------------

Chorus till fade out:

d------------------------------------------------
A------------------------------------------------
F------------------------------------------------
C--12-12-12-12--12-12-12-12--15-15-10-10---------
G--12-12-12-12--12-12-12-12--15-15-10-10---------
C--12-12-12-12--12-12-12-12--15-15-10-10---------

d------------------------------------------------
A------------------------------------------------
F------------------------------------------------
C--12-12-12-12--12-12-12-12--8-8-7-7-------------
G--12-12-12-12--12-12-12-12--8-8-7-7-------------
C--12-12-12-12--12-12-12-12--8-8-7-7-------------

Thats Pretty much it.... The band has 2 guitarists, so I'm sure I've missed many of the subtleties but its a start.
Anyway, the song.  Not too difficult... I guess the hardest part is getting a bassist to play along...
Alright... Remember to rate this tab.  Later
            
Submit corrections

comments powered by Disqus
↑ Back to top | Raised Fist Tabs for Breaking Me Up. Lyrics for acoustic guitar and electric guitar. Tablatures and chords are parodies/interpretations of the original songs. You may use it for private study, scholarship, research or language learning purposes only