>
 >
Still I'm Sad

Still I'm Sad Guitar Tabs

Rainbow - Still I'm Sad chords, tabs, tablatures, lyrics

Guitar lessons | Add/correct | Request | Top 50 tabs Artists:  A B C D E F G H I J K L M N O P Q R S T U V W X Y Z 0-9

Still I'm Sad Guitar Tabs – Rainbow

CD, Sheet music, Poster

Do you like Still I'm Sad? Share with your friends now
Tabs
Ritchie Blackmore's Rainbow

Intro
     Play 7x
  E|---------------------------------|-------------------------------|
  B|---------------------------------|-------------------------------|
  G|---------------------------------|-------------------------------|
  D|---------------------------------|-------------------------------|
  A|---------7-------------7---------|---------7-------------7p5--5--|
  E|-0-0-0-0-------0-0-0-0-----------|-0-0-0-0-------0-0-0-0---------|


                          Em                       D/E
  E|--------------------|-----------------------|---------------------|
  B|--------------------|-----------------------|---------------------|
  G|--------------------|-----------------------|---------------------|
  D|-----7-------5------|-2---4-5-------4-5-----|-7---5-4h5p4---------|
  A|---7-------5--------|-----------------------|-------------7-5-----|
  E|-5-------3----------|-----------------------|---------------------|


      Em
  E|--------------------|-----------------------|---------------------|
  B|--------------------|-----------------------|---------------------|
  G|------0--------0----|-----------2b(4)-------|---------------------|
  D|---2----------------|-----------------------|-2---4-5-----4-5-----|
  A|--------------------|-0h2p0-----------------|---------------------|
  E|------------------0-|-------3-0-------------|---------------------|


      D/E                 Em
  E|--------------------|-----------------------|---------------------|
  B|--------------------|-----------------------|---------------------|
  G|--------------------|----------------7s9----|-9s7---7s9--9s-------|
  D|-7---5-4--4h5p4-----|----------------7s9----|-9s7---7s9--9s-------|
  A|----------------7-5-|--7--------------------|---------------------|
  E|--------------------|---------------------0-|---------------------|


      G                   C/G                      G
  E|--------------------|-----------------------|---------------------| 
  B|--------------------|-----------------------|---------------------|
  G|-----2-4-------2-4--|-5-4-----2h4ph2--------|---------------------|
  D|-5------------------|----------------5------|----5------4h5p4-----|
  A|--------------------|-----------------------|--5---------------7--|
  E|--------------------|-----------------------|---------------------|


      D7                   G                       C/G
  E|--------------------|-----------------------|---------------------| 
  B|--------------------|-----------------------|---------------------| 
  G|--------5b(7)-------|-----2-4----------2-4--|-5---4h5p4h-2-----2--| 
  D|--------------------|-5---------------------|--------------5------| 
  A|--5-----------------|-----------------------|---------------------| 
  E|--------------------|-----------------------|---------------------| 


        B7       Am          G         B/F#        F#
  E|--------------------|-----------------------|---------------------| 
  B|--------------------|-----------------------|---------------------| 
  G|-----4-------2------|-----------------------|--6------------------| 
  D|--------------------|-----5---------4-------|---------------------| 
  A|--------------------|-----------------------|---------------------| 
  E|--------------------|-----------------------|---------------------|


      G/F#                 A/F#                    F#
  E|--------------------|-----------------------|---------------------| 
  B|--------------------|-----------------------|-----7-----7---------|
  G|--7-----------------|--9--------------------|--9b(11)-(11)--------|
  D|--------------------|-----------------------|---------------------| 
  A|--------------------|-----------------------|---------------------| 
  E|--------------------|-----------------------|---------------------|


      D/F#         Em                               D/F#       Em
  E|--------------------|-0---------------------|--------------------|
  B|--------------------|-----------------------|--------------------|
  G|--9b(11)--(11)-9----|-----------------------|--9b(11)--(11)-9----|
  D|--------------------|-----------------------|--------------------| 
  A|--------------------|-----------------------|--------------------|
  E|--------------------|-----------------------|--------------------|


                           Em
  E|-0------------------|-----------------------|--------------------|
  B|--------------------|-----------------------|--------------------|
  G|--------------------|-----------------------|--------------------|
  D|--------------------|-----2--4-5-----4-5----|-7-5-4h5p4----------|
  A|--------------------|---2-------------------|-----------7--5-----|
  E|--------------------|-0---------------------|--------------------|


  E|--------------------|-----------------------|--------------------|
  B|--------------------|-----------------------|-5--7-8-----7-8b----|
  G|--------------------|-4--7b(9)--7-----------|--------------------|
  D|-2---4-5----5-7-----|-----------------------|--------------------|
  A|--------------------|-----------------------|--------------------|
  E|--------------------|-----------------------|--------------------|

      D/E                                  
  E|--------------------|------------------|-----7----7---7---7---7--|
  B|-(10)-8--7h8ph7-5---|------------------|-10b(12)(12)(12)(12)(12)-|
  G|------------------7-|--9---------------|-------------------------|
  D|--------------------|------------------|-------------------------|
  A|--------------------|------------------|-------------------------|
  E|--------------------|------------------|-------------------------|

       G                      C                   G
  E|--7---7---7---7--------|-------------10b(12)|(12)10--------------|
  B|(12)(12)(12)(12)-10-8--|-10p8---8---8-------|------10b(12)10-8---|
  G|-----------------------|------9-------------|--------------------|
  D|-----------------------|--------------------|--------------------|
  A|-----------------------|--------------------|--------------------|
  E|-----------------------|--------------------|--------------------|

      D7                     D7                    G           C
  E|-----------------------|--------------------|--------------------|
  B|-----------------------|-13b(15)-(15)-(15)--|(15)(15)(15)(15)(15)|
  G|--7--------------------|--------------------|--------------------|
  D|-----------------------|--------------------|--------------------|
  A|-----------------------|--------------------|--------------------|
  E|-----------------------|--------------------|--------------------|

      B     Am      G      B/F#       F           G/F#        A/F#
  E|-7------5----|-3------2---------|-----------|-----------|--------|
  B|10b(12)8b(10)|-6b(8)--5b(7)-----|-----------|-----------|--------|
  G|-------------|------------------|-6---------|-7---------|-9------|
  D|-------------|------------------|-----------|-----------|--------|
  A|-------------|------------------|-----------|-----------|--------|
  E|-------------|------------------|-----------|-----------|--------|

      F#           D/F#   Em                 D/F#  Em
  E|-------------|-------------|-0---------|-----------|-------------|
  B|-----7-----7-|-5s7---5--5--|--5--------|-5s7--5--5-|-------------|
  G|9b(11)-9b(11)|-------------|-----------|-----------|-2b3---------|
  D|-------------|-------------|-----------|-----------|-------------|
  A|-------------|-------------|-----------|-----------|-------------|
  E|-------------|-------------|-----------|-----------|-------------|

      Bm
  E|----------------------|----------------------|-------------------|
  B|----------------------|----------------------|-------------------|
  G|-4-4---4h7p4-4---4----|-4-----4-7b(11)-------|-4-4---4-7b(11)(11)|
  D|-----7---------7---7--|-----7----------------|-----7-------------|
  A|----------------------|----------------------|-------------------|
  E|----------------------|----------------------|-------------------|


  E|----------------------|------------------------------------------|
  B|----------------------|------------------------------------------| 
  G|-(11)-7---4---4-2-----|-9s11----11-11-11-11-11-11-11-11-11-11-11-| 
  D|------------7---------|------------------------------------------| 
  A|----------------------|------------------------------------------| 
  E|----------------------|------------------------------------------|


  E|------7h9p7----10-9h10p9-7-7-9-10---5-|7h9p7----7-10b(12)(12)(12)|
  B|-7h10--------0--------------------0---|------10------------------|
  G|--------------------------------------|--------------------------|
  D|--------------------------------------|--------------------------|
  A|--------------------------------------|--------------------------|
  E|--------------------------------------|--------------------------|


  E|12s14---10----10----10----------|---------------------------------|
  B|-----------12----12----12-10----|10h12p10----10h12p10h----10-12b15|
  G|-----------------------------11-|---------11-----------11---------|
  D|--------------------------------|---------------------------------|
  A|--------------------------------|---------------------------------|
  E|--------------------------------|---------------------------------|


  E|-5h7p5---5----------------------|---------------------------------|
  B|-------7---7h5---6h5---6h5------|-6h5---6h5---6h5---6h5---5s7-----|
  G|---------------7-----7-----7----|-----7-----7-----7-----7---------|
  D|--------------------------------|---------------------------------|
  A|--------------------------------|---------------------------------|
  E|--------------------------------|---------------------------------|

     Play 3 times                      F#
  E|--------------------------------|---------------------------------|
  B|--------------------------------|---------------------------------|
  G|--------------------------------|---2b(4)-------------------------|
  D|-4h5p4---4h5p4---4h5p4--4h5p4---|-4-------------------------9s----|
  A|-------7-------7-------7------7-|---------------------------------|
  E|--------------------------------|---------------------------------|

     Em                               D/E
  E|--------------------------------|---------------------------------|
  B|--------------------------------|---------------------------------|
  G|--------------------------------|---------------------------------|
  D|-2-----4-5---5---5-4-5----------|-7-----7-5--4h5p4-2--------------|
  A|--------------------------------|--------------------5------------|
  E|--------------------------------|---------------------------------|

      Em
  E|------------------|----------------------|------------------------|
  B|--------0---------|----------------------|------------------------|
  G|------------------|-2b(4)-2b(4)-2b(4)----|------------------------|
  D|--2---------------|----------------------|-2s--4-5-----4-5--------|
  A|------------------|----------------------|------------------------|
  E|------------------|----------------------|------------------------|


  E|------------------|-----------------------|-----------------------|
  B|------------------|-----------0-----------|-----------------------|
  G|------------------|-----------------------|-2b(4)-2b(4)-2b(4)-----|
  D|-7---5-4h5p4-2----|---2-------------------|-----------------------|
  A|---------------5--|-----------------------|-----------------------|
  E|------------------|-----------------------|-----------------------|

                        D/E                     Em
  E|------------------|-----------------------|-----------------------|
  B|------------------|-----------------------|-----3s5------5-3s5----|
  G|------------------|-----------------------|-----------------------|
  D|2s--4-5-----4-5---|-7---5-4h5p4-2---------|--2--------------------|
  A|------------------|---------------5-------|-----------------------|
  E|------------------|-----------------------|-----------------------|

                         G                       C
  E|------------------|-----------------------|-----------------------|
  B|--5---------------|-----------------------|-----------------------|
  G|------------------|-----2s4-------2-4-----|-5-4-4-2---------------|
  D|------------------|-5---------------------|----------5------------|
  A|------------------|-----------------------|--------------------=--|
  E|------------------|-----------------------|-----------------------|

     G                  D                
  E|------------------|-----------------------|----------10-----------|
  B|------------------|-----------------------|-------10----13b(15)---|
  G|------------------|------5b(6)------------|----11-----------------|
  D|-----5-4h5p4--2---|--0--------------------|-12--------------------|
  A|-5----------------|-----------------------|-----------------------|
  E|------------------|-----------------------|-----------------------|

     G                  C                       B         Am
  E|------------------|-----------------------|-----------------------|
  B|------------------|-----------------------|-----------------------|
  G|----2b(4)-4b(2)-4-|-5-4h5p4s2-2------2----|--4---------2----------|
  D|-5----------------|---------------5-------|-----------------------|
  A|------------------|-----------------------|-----------------------|
  E|------------------|-----------------------|-----------------------|

       G       B/F#
  E|------------------|-----------------------|-----------------------|
  B|------------------|-----------------------|-----------------------|
  G|------------------|-6b-----------(7)------|-9b--------(11)--------|
  D|---5-------4------|-----------------------|-----------------------|
  A|------------------|-----------------------|-----------------------|
  E|------------------|-----------------------|-----------------------|

      D                  Em
  E|------------------|-----------------------|-----------------------|
  B|------------------|-----------------------|-----------------------|
  G|--11----9b--------|-(9)-------------------|-----------------------|
  D|------------------|-----------------------|-----------------------|
  A|------------------|-----------------------|-----------------------|
  E|------------------|-----------------------|-----------------------|





Comments


Popular Rainbow tabs & chords
Man On The Silver Mountain 2 Bass Tabs
Since You've Been Gone Bass Tabs
Black Masquerade Chords
Ariel Tabs
Long Live Rock'n'Roll Tabs
Man On The Silver Mountain 2 Tabs
Since Youve Been Gone (Intro) Tabs
Since Youve Been Gone Intro 1 Tabs
Stargazer Tabs
Cant Let You Go Ukulele


Song lyrics



↑ Back to top | Tablatures and chords are parodies/interpretations of the original songs. You may use it for private study, scholarship, research or language learning purposes only
© 2014 AZChords.com Contact us | Privacy policy | DMCA | Add/correct tabs | Request tabs | Top 50 tabs