>
 >
Sensitive To Light

Sensitive To Light Guitar Tabs

Rainbow - Sensitive To Light chords, tabs, tablatures, lyrics

Guitar lessons | Add/correct | Request | Top 50 tabs Artists:  A B C D E F G H I J K L M N O P Q R S T U V W X Y Z 0-9

Sensitive To Light Guitar Tabs – Rainbow

CD, Sheet music, Poster

Do you like Sensitive To Light? Share with your friends now
Tabs
------------------------------------------------------------------------------
1.                           Sensitive to Light- Rainbow
2.                          Long Live Rock and Roll- 1978
3.              Words and Music by Ritchie Blackmore and Ronnie James Dio       
------------------------------------------------------------------------------


Tuning: Standard

Intro (Over driven tone)
e|------------------------------|-----------------------------------------|
B|------------------------------|-----------------------------------------|
G|---------0--------------------|-----------------5~~~--------------------|
D|--0h1h2---------1p0-----0-----|-----7--5-----5--------7--7--5-----------|
A|---------------------3-----3--|--0--------5--------------------7--5-----|
E|------------------------------|--------------------------------------8--|

* See end of tab for harmony overdub
e|---------------------------------------|
B|---------------------------------------|
G|-----------------5~~~--*7br--5--7--5---|
D|-----7--5-----5------------------------|
A|--0--------5---------------------------|
E|---------------------------------------|

e|-----------------------------------------|---------------------------------|
B|-----------------------------------------|---------------------------------|
G|-----------------5~~~--------------------|-----------------5~~~------------|
D|-----7--5-----5--------7--7--5-----------|-----7--5-----5--------7---------|
A|--0--------5--------------------7--5-----|--0--------5---------------------|
E|--------------------------------------8--|--------------------------2--3--4|

1st Verse

           T  T  E  Q  T  T  E  Q      T  T  E  Q  T  T
e|---------2--2--2--2--2--2--2---|--2--2--2--2--2--2----------------------|
B|---------3--3--3--3--3--3--3---|--3--3--3--3--3--3----------------------|
G|---------2--2--2--2--2--2--2---|--2--2--2--2--2--2-----2--4p2-----7--5--|
D|------0--0--0--0--0--0--0--0---|--0--0--0--0--0--0--4----------4--------|
A|-------------------------------|----------------------------------------|
E|--5----------------------------|----------------------------------------|


                                               T  T  E  Q  T  T  E  Q 
e|--------------------------------------|---------2--2--2--2--2--2--2---|
B|--------------------------------------|---------3--3--3--3--3--3--3---|
G|-----------------5--------------------|---------2--2--2--2--2--2--2---|
D|-----7--5-----5-----7--7--5-----------|------0--0--0--0--0--0--0--0---|
A|--0--------5-----------------7--5-----|-------------------------------|
E|-----------------------------------8--|--5----------------------------|


    T  T  E  Q  T  T
e|--2--2--2--2--2--2----------------------|
B|--3--3--3--3--3--3----------------------|
G|--2--2--2--2--2--2-----2--4p2-----7--5--|
D|--0--0--0--0--0--0--4----------4--------|
A|----------------------------------------|
E|----------------------------------------|
   
e|--------------------------------------|--------------------------------|
B|--------------------------------------|--------------------------------|
G|-----------------5--------------------|-----------------5--------------|
D|-----7--5-----5-----7--7--5-----------|-----7--5-----5-----7-----------|
A|--0--------5-----------------7--5-----|--0--------5-----------4--5--6--|
E|-----------------------------------8--|--------------------------------|

1st Chorus
e|-----------------------------------------|---------------------------------|
B|-----------------------------------------|---------------------------------|
G|-----------------------------------------|---------------------------------|
D|----------------------------------7~~--0-|-2--3--3--3--2--3--5--3--5--6--6-|
A|--7--------7~~---------7~~--5--5-------0-|-2--3--3--3--2--3--5--3--5--6--6-|
E|-----0--0--------0--0--------------------|---------------------------------|

e|-----------------------------------------|---------------------------------|
B|-----------------------------------------|---------------------------------|
G|-----------------5~~~--------------------|-----------------5~~~------------|
D|-----7--5-----5--------7--7--5-----------|-----7--5-----5--------7---------|
A|--0--------5--------------------7--5-----|--0--------5---------------------|
E|--------------------------------------8--|--------------------------2--3--4|

2nd Verse


        T  E  Q =S  T  T  E  Q =S   T  T  E  Q  T  T
e|---------2--2--2--2--2--2--2---|--2--2--2--2--2--2----------------------|
B|---------3--3--3--3--3--3--3---|--3--3--3--3--3--3----------------------|
G|---------2--2--2--2--2--2--2---|--2--2--2--2--2--2-----2--4p2-----7--5--|
D|------0--0--0--0--0--0--0--0---|--0--0--0--0--0--0--4----------4--------|
A|-------------------------------|----------------------------------------|
E|--5----------------------------|----------------------------------------|


                                              T   E  Q SR  T  T  E  Q SR
e|-----------------------------------------|---------2-----2--2--2--2-----|
B|-----------------------------------------|---------3-----3--3--3--3-----|
G|-----------------5~~~--------------------|---------2-----2--2--2--2-----|
D|-----7--5-----5--------7--7--5-----------|------0--0-----0--0--0--0-----|
A|--0--------5--------------------7--5-----|------------------------------|
E|--------------------------------------8--|--5---------------------------|


    T  T  E  Q  T  T
e|--2--2--2--2--2--2----------------------|
B|--3--3--3--3--3--3----------------------|
G|--2--2--2--2--2--2-----2--4p2-----7--5--|
D|--0--0--0--0--0--0--4----------4--------|
A|----------------------------------------|
E|----------------------------------------|
   
e|--------------------------------------|--------------------------------|
B|--------------------------------------|--------------------------------|
G|-----------------5--------------------|-----------------5--------------|
D|-----7--5-----5-----7--7--5-----------|-----7--5-----5-----7-----------|
A|--0--------5-----------------7--5-----|--0--------5-----------4--5--6--|
E|-----------------------------------8--|--------------------------------|

2nd Chorus
e|-----------------------------------------|---------------------------------|
B|-----------------------------------------|---------------------------------|
G|-----------------------------------------|---------------------------------|
D|----------------------------------7~~--0-|-2--3--3--3--2--3--5--3--5--6--6-|
A|--7--------7~~---------7~~--5--5-------0-|-2--3--3--3--2--3--5--3--5--6--6-|
E|-----0--0--------0--0--------------------|---------------------------------|

e|-----------------------------------------|------------------------|
B|-----------------------------------------|------------------------|
G|-----------------5~~~--------------------|-----------------5~~~---|
D|-----7--5-----5--------7--7--5-----------|-----7--5-----5---------|
A|--0--------5--------------------7--5-----|--0--------5------------|
E|--------------------------------------8--|------------------------|

Bridge * refer to end of tab for guitar overdub
e|-------------------------------|
B|-------------------------------|
G|-----4-----5-----6--7--9--11---|
D|-----2-----3-----4--5--7--9----|
A|--0-----0-----0----------------|
E|-------------------------------|

Solo  * Refer to end of tab for accompanying harmony and rhythm 
                                                                  tr~~~       
e|-----------------------|------12--13--15--|--15b--15pbr--13--15--13(15)--12|
B|---------12--13--15br--|------------------|--------------------------------|
G|--12h14----------------|--14--------------|--------------------------------|
D|-----------------------|------------------|--------------------------------|
A|-----------------------|------------------|--------------------------------|
E|-----------------------|------------------|--------------------------------|

                    tr~~~
e|--13--12--10--12--10(12)------|-------------------------|
B|--------------------------13--|---------12--13--12--13--|
G|------------------------------|--14pbr------------------|
D|------------------------------|-------------------------|
A|------------------------------|-------------------------|
E|------------------------------|-------------------------|

e|-----------------------|--------------|---------------------------------|
B|--13br--12--15--15/20--|-----20b------|---------------------------------|
G|-----------------------|--------------|-----------------5~~~------------|
D|-----------------------|--------------|-----7--5-----5--------7---------|
A|-----------------------|--------------|--0--------5---------------------|
E|-----------------------|--------------|--------------------------2--3--4|

3rd Verse

           T  T  E  Q  T  T  E  Q      T  T  E  Q  T  T
e|---------2--2--2--2--2--2--2---|--2--2--2--2--2--2----------------------|
B|---------3--3--3--3--3--3--3---|--3--3--3--3--3--3----------------------|
G|---------2--2--2--2--2--2--2---|--2--2--2--2--2--2-----2--4p2-----7--5--|
D|------0--0--0--0--0--0--0--0---|--0--0--0--0--0--0--4----------4--------|
A|-------------------------------|----------------------------------------|
E|--5----------------------------|----------------------------------------|


                                               T  T  E  Q  T  T  E  Q 
e|--------------------------------------|---------2--2--2--2--2--2--2---|
B|--------------------------------------|---------3--3--3--3--3--3--3---|
G|-----------------5--------------------|---------2--2--2--2--2--2--2---|
D|-----7--5-----5-----7--7--5-----------|------0--0--0--0--0--0--0--0---|
A|--0--------5-----------------7--5-----|-------------------------------|
E|-----------------------------------8--|--5----------------------------|

    T  T  E  Q  T  T
e|--2--2--2--2--2--2----------------------|
B|--3--3--3--3--3--3----------------------|
G|--2--2--2--2--2--2-----2--4p2-----7--5--|
D|--0--0--0--0--0--0--4----------4--------|
A|----------------------------------------|
E|----------------------------------------|
   
e|--------------------------------------|--------------------------------|
B|--------------------------------------|--------------------------------|
G|-----------------5--------------------|-----------------5--------------|
D|-----7--5-----5-----7--7--5-----------|-----7--5-----5-----7-----------|
A|--0--------5-----------------7--5-----|--0--------5-----------4--5--6--|
E|-----------------------------------8--|--------------------------------|


3rd Chorus

e|-----------------------------------------|---------------------------------|
B|-----------------------------------------|---------------------------------|
G|-----------------------------------------|---------------------------------|
D|----------------------------------7~~--0-|-2--3--3--3--2--3--5--3--5--6--6-|
A|--7--------7~~---------7~~--5--5-------0-|-2--3--3--3--2--3--5--3--5--6--6-|
E|-----0--0--------0--0--------------------|---------------------------------|

e|-----------------------------------------|---------------------------------|
B|-----------------------------------------|---------------------------------|
G|-----------------5~~~--------------------|-----------------5~~-------------|
D|-----7--5-----5--------7--7--5-----------|-----7--5-----5-------7----------|
A|--0--------5--------------------7--5-----|--0--------5-------------4--5--6-|
E|--------------------------------------8--|---------------------------------|

Chorus reprise
e|-----------------------------------------|---------------------------------|
B|-----------------------------------------|---------------------------------|
G|-----------------------------------------|---------------------------------|
D|----------------------------------7~~--0-|-2--3--3--3--2--3--5--3--5--6--6-|
A|--7--------7~~---------7~~--5--5-------0-|-2--3--3--3--2--3--5--3--5--6--6-|
E|-----0--0--------0--0--------------------|---------------------------------|

e|-----------------------------------------|---------------------------------|
B|-----------------------------------------|---------------------------------|
G|-----------------5~~~--------------------|-----------------5~~-------------|
D|-----7--5-----5--------7--7--5-----------|-----7--5-----5-------7----------|
A|--0--------5--------------------7--5-----|--0--------5---------------------|
E|--------------------------------------8--|-------------------------2--3--4-|

Outro
e|--------------------------------|---------------------|------------|
B|--------------------------------|---------------------|------------|
G|--------------------------------|------2---------7----|-----2------|
D|-----7--------------7-----------|------2----5----7----|-----2------|
A|--------------------------------|------0----5----5----|-----0------|
E|--5-----2--3--4--5-----2--3--4--|--5--------3---------|------------|

Intro harmony
e|---------------------------------------|
B|---------------------------------------|
G|-----------------5~~~--*4br--2--4--2---|
D|-----7--5-----5------------------------|
A|--0--------5---------------------------|
E|---------------------------------------|

Bridge over dub
e|------------------------------|
B|------------------------------|
G|------------------------------|
D|------------------------------|
A|-----7-----6-----5--4--3--2---|
E|--0-----0-----0---------------|

Harmony Solo
                                                       tr~~
e|-------------------|--------------|----------------------------|
B|-------------------|-----5--6--8--|--8b--8pbr--6--8--6(5)--6---|
G|--4h5--7--7--7pbr--|--5-----------|----------------------------|
D|-------------------|--------------|----------------------------|
A|-------------------|--------------|----------------------------|
E|-------------------|--------------|----------------------------|

                tr~~
e|-----------------------|-------------------------|-------------------------|
B|--6--5-----5--3(5)-----|---------12--13--12--13--|--13br--12--15--15/20----|
G|--------7-----------5--|--14pbr------------------|-------------------------|
D|-----------------------|-------------------------|-------------------------|
A|-----------------------|-------------------------|-------------------------|
E|-----------------------|-------------------------|-------------------------|

rhythm under solo  * Steady sixteenth notes rest of solo
e|---------3----|---1----------|--------------|--------------|----------|
B|---------3----|---1----------|--------------|--------------|----------|
G|---2-----0----|---2-----5----|---7-----5----|---3-----2----|----------|
D|---2-----0----|---3-----5----|---7-----5----|---3-----2----|---*5-----|
A|---0-----2----|---3-----3----|---5-----3----|---1-----0----|---*5-----|
E|---------3----|---1----------|--------------|--------------|---*3-----|

************************************

| /   slide up
| \   slide down
| h   hammer-on
| p   pull-off
| ~   vibrato
| +   harmonic
| x   Mute note
| b   Bend
| pb  Pre-bend
| br  Bend release
| pbr Pre-bend release
| brb Bend release bend
| =   Tied note
| tr~~ Trill

************************************
Intro

N.C.

1st Verse
D
I was feelin' rather good 

should have touched some wood 

here she comes again 

                             N.C.
reachin' out to bend my ear 

D
she's worth another look 

all the time it took 

pleasin' to the eye 

                         N.C.
how can I just disappear 

it ain't clear no 

1st Chorus

E                  D
She's a bright and shining star

 A   F       E   F  G  F# G G#   A     N.C.
 but I just must be sensitive to light 

oh I just might 

2nd Verse
D
I could have let her in 

give her just a spin 

let her think it's love 

                         N.C.
better rise above it all 

D
she's knockin' at the door 

seems to want some more 

never gets the clue 

                N.C.
what am I to do 

she'll fall and she might call oh no 

2nd Chorus

      E                  D
I say She's a bright and shining star 

A   F       E   F  G  F# G G#   A     N.C.
but I just must be sensitive to light oh I just might 

Bridge

N.C.

Solo

A   G   F   C   D    C   Bb   A   G  N.C.
oh oh oh oh oh oh oh ah ah ah ah 

3rd Verse

D
she could do me well 

I can always tell 

she's ready for the kill 

                           N.C.
but I think that I will go 

D
sure I'm gonna see 

something just for me 

till it comes along 

                       N.C.
when its feelin' wrong 

I'll know gotta take it slow 

3rd Chorus

E                  D
She's a bright and shining star 

A   F       E   F  G  F# G G#   A     N.C.
but I just must be sensitive to light I just might 

E                  D
she's a bright and blazing star 

A   F       E   F  G  F# G G#   A     N.C.
but I just must be sensitive to light 

Outro
              A     G   D   A
sensitive to light whoo yeah





Comments


Popular Rainbow tabs & chords
All Night Long Chords
Rainbow Eyes Chords
A Light In The Black Tabs
Freedom Fighter Tabs
Long Live Rock'n'Roll Tabs
Lost In HollywoodIntro Tabs
Man On The Silver Mountain Tabs
Maybe Next Time 1 Tabs
Since Youve Been Gone (Intro Ver 2) Tabs
Southborder Tabs


Song lyrics



↑ Back to top | Tablatures and chords are parodies/interpretations of the original songs. You may use it for private study, scholarship, research or language learning purposes only
© 2014 AZChords.com Contact us | Privacy policy | DMCA | Add/correct tabs | Request tabs | Top 50 tabs