>
 >
L.A. Connection

L.A. Connection Guitar Tabs

Rainbow - L.A. Connection chords, tabs, tablatures, lyrics

Guitar lessons | Add/correct | Request | Top 50 tabs Artists:  A B C D E F G H I J K L M N O P Q R S T U V W X Y Z 0-9

L.A. Connection Guitar Tabs – Rainbow

CD, Sheet music, Poster

Do you like L.A. Connection? Share with your friends now
Tabs
Album:1978 Long Live Rock-n-Roll
Song Name:L.A Connection

Tunning:Standard

INTRO:


E||------------------------------------------|
B||--3---------------------------------------|
G||--2------------------------2--------------|
D||--0------------------------2--------------|
A||--------------------3-0----0-----0--------|
E||------------------------3b----------------|


---------------------------------------------|
--3------------------------------------------|
--2-----------------------------2------------|
--0-----------------------------2------------|
-------------------------3-0----0-----0-3p-0-|
-----------------------------3b--------------|

----------------------------------|
--3-------------------------------|
--2--------2--------------2-L-----|
--0--------2--------------2-L-----|
----3-0----0-----0-3p-0---0-L-----|
--------3b--------------3------3--|


------------------------------------------|
--3---------------------------------------|
--2--------2------------------------------|
--0--------2------------------------------|
----3-0----0-----0-3p-0---0-3p-0---0-3p-0-|
--------3b--------------3--------3--------|

---------------------------|
-------------3----L--------|
-------------2----L--------|
-------------0----L--------|
----0-3p-0-----------------|
--3--------3---------------|


  Riff:

-----------------------------------------|
----------3------------------------------|
----------2--------2-L-----------2-L-----|
----------0--------2-L-----------2-L-----|
------------3-0----0-L--0-3p-0---0-L-----|
----------------3b-------------3------3--|

----------------------------------|
----3----------------------3-L----|
----2--------2-L-----------2-L----|
----0--------2-L-----------0-L----|
------3-0----0-L--0-3p-0----------|
----------3b-------------3--------|

-----------------------------------|
----3------------------------------|
----2--------2-L-----------2-L-----|
----0--------2-L-----------2-L-----|
------3-0----0-L--0-3p-0---0-L-----|
----------3b-------------3------3--|

----------------------------------|
----3----------------------3-L----|
----2--------2-------------2-L----|
----0--------2-------------0-L----|
------3-0----0----0-3p-0----------|
----------3b-------------3--------|


  Verse 1:

------------------------------------------|
-----------3------------------------------|
-----------2--------2-L-----------2-L-----|
-----------0--------2-L-----------2-L-----|
-------------3-0----0-L--0-3p-0---0-L-----|
-----------------3b-------------3------3--|

----------------------------------|
----3----------------------3-L----|
----2--------2-L-----------2-L----|
----0--------2-L-----------0-L----|
------3-0----0-L--0-3p-0----------|
----------3b-------------3--------|

-----------------------------------|
----3------------------------------|
----2--------2-L-----------2-L-----|
----0--------2-L-----------2-L-----|
------3-0----0-L--0-3p-0---0-L-----|
----------3b-------------3------3--|

-----------------------------------|
----3-----------------------3-L----|
----2--------2-L------------2-L----|
----0--------2-L------------0-L----|
------3-0----0-L---0-3p-0----------|
----------3b--------------3--------|


  Verse 2:

------------------------------------------|
-----------3------------------------------|
-----------2--------2-L-----------2-L-----|
-----------0--------2-L-----------2-L-----|
-------------3-0----0-L--0-3p-0---0-L-----|
-----------------3b-------------3------3--|

----------------------------------|
----3----------------------3-L----|
----2--------2-L-----------2-L----|
----0--------2-L-----------0-L----|
------3-0----0-L--0-3p-0----------|
----------3b-------------3--------|

-----------------------------------|
----3------------------------------|
----2--------2-L-----------2-L-----|
----0--------2-L-----------2-L-----|
------3-0----0-L--0-3p-0---0-L-----|
----------3b-------------3------3--|

-------------------------------------|
----3----------------------------3---|
----2--------2-L-------------2---2---|
----0--------2-L-------------2---0---|
------3-0----0-L--0-3p-0-----0-------|
----------3b-------------3-----------|


  Chorus:

-------------------------|
--3-------L----3----L----|
--0-------L----2----L----|
--0-------L----0----L----|
-------------------------|
--3-------L----2----L----|

-------------------------------------|
----3----------------------------3---|
----2--------2-L-------------2---2---|
----0--------2-L-------------2---0---|
------3-0----0-L--0-3p-0-----0-------|
----------3b-------------3-----------|

----------------------|
--3----L----3----L----|
--0----L----2----L----|
--0----L----0----L----|
----------------------|
--3----L----2----L----|

-----------------------------------|
----3------------------------------|
----2--------2-L-----------2-L-----|
----0--------2-L-----------2-L-----|
------3-0----0-L--0-3p-0---0-L-----|
----------3b-------------3------3--|

-------------------------------------------|
----3--------------------------------------|
----2--------2-L---------------------------|
----0--------2-L---------------------------|
------3-0----0-L--0-3p-0---0-3p-0---0-3p-0-|
----------3b-------------3--------3--------|

----------------------------|
-------------3----L---------|
-------------2----L---------|
-------------0----L---------|
----0-3p-0------------------|
--3--------3----------------|


  Verse 3:

------------------------------------------|
-----------3------------------------------|
-----------2--------2-L-----------2-L-----|
-----------0--------2-L-----------2-L-----|
-------------3-0----0-L--0-3p-0---0-L-----|
-----------------3b-------------3------3--|


----------------------------------|
----3----------------------3-L----|
----2--------2-L-----------2-L----|
----0--------2-L-----------0-L----|
------3-0----0-L--0-3p-0----------|
----------3b-------------3--------|

-----------------------------------|
----3------------------------------|
----2--------2-L-----------2-L-----|
----0--------2-L-----------2-L-----|
------3-0----0-L--0-3p-0---0-L-----|
----------3b-------------3------3--|

-----------------------------------|
----3-----------------------3-L----|
----2--------2-L------------2-L----|
----0--------2-L------------0-L----|
------3-0----0-L---0-3p-0----------|
----------3b--------------3--------|


  Verse 4:

------------------------------------------|
-----------3------------------------------|
-----------2--------2-L-----------2-L-----|
-----------0--------2-L-----------2-L-----|
-------------3-0----0-L--0-3p-0---0-L-----|
-----------------3b-------------3------3--|

----------------------------------|
----3----------------------3-L----|
----2--------2-L-----------2-L----|
----0--------2-L-----------0-L----|
------3-0----0-L--0-3p-0----------|
----------3b-------------3--------|

-----------------------------------|
----3------------------------------|
----2--------2-L-----------2-L-----|
----0--------2-L-----------2-L-----|
------3-0----0-L--0-3p-0---0-L-----|
----------3b-------------3------3--|

-------------------------------------|
----3----------------------------3---|
----2--------2-L-------------2---2---|
----0--------2-L-------------2---0---|
------3-0----0-L--0-3p-0-----0-------|
----------3b-------------3-----------|


  Chorus:

-------------------------|
--3-------L----3----L----|
--0-------L----2----L----|
--0-------L----0----L----|
-------------------------|
--3-------L----2----L----|

-------------------------------------|
----3----------------------------3---|
----2--------2-L-------------2---2---|
----0--------2-L-------------2---0---|
------3-0----0-L--0-3p-0-----0-------|
----------3b-------------3-----------|

----------------------|
--3----L----3----L----|
--0----L----2----L----|
--0----L----0----L----|
----------------------|
--3----L----2----L----|

-----------------------------------|
----3------------------------------|
----2--------2-L-----------2-L-----|
----0--------2-L-----------2-L-----|
------3-0----0-L--0-3p-0---0-L-----|
----------3b-------------3------3--|

-------------------------------------------|
----3--------------------------------------|
----2--------2-L---------------------------|
----0--------2-L---------------------------|
------3-0----0-L--0-3p-0---0-3p-0---0-3p-0-|
----------3b-------------3--------3--------|

----------------------------|
-------------3----L---------|
-------------2----L---------|
-------------0----L---------|
----0-3p-0------------------|
--3--------3----------------|


  Solo:
                  \1/

-----------------------|
-----------------------|
--2-----L----L---------|
------------------0----|
-----------------------|
-----------------------|

-----------------------|
-----------------------|
-------2----L----------|
--L--------------2--1--|
-----------------------|
-----------------------|

-----------------------------|
-----------------------------|
-------2--L----L-------------|
--0h-2-----------------------|
--------------------3pbr--0--|
-----------------------------|

---------------------------|
---------------------------|
-------2-------------------|
--0---------5pbr--0-7-L----|
---------------------------|
---------------------------|

----------------------------|
----------------------------|
---------------5------------|
-------5---5-------7-L-L----|
---------7---7--------------|
----------------------------|

--------------------------------|
--5--8---8pbr--5---8b----L----5-|
--------------------------------|
--------------------------------|
--------------------------------|
--------------------------------|


-----------------------------5--|
--x-8b-x--8b--5--x-8b-x--8b-----|
--------------------------------|
--------------------------------|
--------------------------------|
--------------------------------|

--8----L-------------------------|
---------8pbr--5-8pbr--5-8b-L----|
---------------------------------|
---------------------------------|
---------------------------------|
---------------------------------|

-------5------------------------|
---------5-8pbr--5-8b-L----L----|
--7b----------------------------|
--------------------------------|
--------------------------------|
--------------------------------|

---------------------------------|
--5---8---8pbr--5-8brb-L---------|
---------------------------------|
---------------------------------|
---------------------------------|
---------------------------------|

-----5-5-5-----------------------|
-----------10S-8-----------------|
-----------------9-9S-7-5-7-L----|
---------------------------------|
---------------------------------|
---------------------------------|

------5---7---8-----------------------|
------5-----------8pbr--5-------------|
--7b------------------------7pbr--5---|
--------------------------------------|
--------------------------------------|
--------------------------------------|

--------------------------|
--------------------------|
--7----L--5--7----7pbr----|
--------------------------|
--------------------------|
--------------------------|

------------------------------------------|
------------------------------------------|
--5----4h-5p-4h-5p-4h-5p-4p-0h-2----L--4--|
------------------------------------------|
------------------------------------------|
------------------------------------------|


                 \1/

---------------------------|
------------5-L--0----7----|
--4pbr----5----------------|
---------------------------|
---------------------------|
---------------------------|

--------------------------|
--------------------------|
--------------------------|
--------------------------|
--5-7-L-------5-7-L-------|
---------0-----------0----|


                     \1/

------------------------------|
-------------------(12)--L----|
-------------------(12)--L----|
------------------------------|
--5-7-L-----------------------|
---------0--0-0-0-------------|


  Verse 5:

------------------------------------------|
-----------3------------------------------|
-----------2--------2-L-----------2-L-----|
-----------0--------2-L-----------2-L-----|
-------------3-0----0-L--0-3p-0---0-L-----|
-----------------3b-------------3------3--|

-----------------------------------|
----3----------------------3-L-----|
----2--------2-L-----------2-L-----|
----0--------2-L-----------0-L-----|
------3-0----0-L--0-3p-0--------3--|
----------3b-------------3---------|

-----------------------------------|
----3------------------------------|
----2--------2-L-----------2-L-----|
----0--------2-L-----------2-L-----|
------3-0----0-L--0-3p-0---0-L-----|
----------3b-------------3------3--|

-----------------------------------|
----3-----------------------3-L----|
----2--------2-L------------2-L----|
----0--------2-L------------0-L----|
------3-0----0-L---0-3p-0----------|
----------3b--------------3--------|


  Verse 6:

------------------------------------------|
-----------3------------------------------|
-----------2--------2-L-----------2-L-----|
-----------0--------2-L-----------2-L-----|
-------------3-0----0-L--0-3p-0---0-L-----|
-----------------3b-------------3------3--|

-----------------------------------|
----3----------------------3-L-----|
----2--------2-L-----------2-L-----|
----0--------2-L-----------0-L-----|
------3-0----0-L--0-3p-0--------3--|
----------3b-------------3---------|

-----------------------------------|
----3------------------------------|
----2--------2-L-----------2-L-----|
----0--------2-L-----------2-L-----|
------3-0----0-L--0-3p-0---0-L-----|
----------3b-------------3------3--|

-------------------------------------|
----3----------------------------3---|
----2--------2-L-------------2---2---|
----0--------2-L-------------2---0---|
------3-0----0-L--0-3p-0-----0-------|
----------3b-------------3-----------|


  Chorus: (Outro...)

------------------------------------|
--3------------------L----3----L----|
--0------------------L----2----L----|
--0------------------L----0----L----|
------------------------------------|
--3------------------L----2----L----|

-------------------------------------|
----3----------------------------3---|
----2--------2-L-------------2---2---|
----0--------2-L-------------2---0---|
------3-0----0-L--0-3p-0-----0-------|
----------3b-------------3-----------|

----------------------|
--3----L----3----L----|
--0----L----2----L----|
--0----L----0----L----|
----------------------|
--3----L----2----L----|

----------------------|
----------------------|
--2----L----4----L----|
--3----L----5----L----|
--3----L----5----L----|
--1----L----3----L----|


-----------------------------------|
----3------------------------------|
----2--------2-L-----------2-L-----|
----0--------2-L-----------2-L-----|
------3-0----0-L--0-3p-0---0-L-----|
----------3b-------------3------3--|

-------------------------------------|
----3----------------------------3---|
----2--------2-L-------------2---2---|
----0--------2-L-------------2---0---|
------3-0----0-L--0-3p-0-----0-------|
----------3b-------------3-----------|

----------------------|
--3----L----3----L----|
--0----L----2----L----|
--0----L----0----L----|
----------------------|
--3----L----2----L----|

-------------------------------------|
----3----------------------------3---|
----2--------2-L-------------2---2---|
----0--------2-L-------------2---0---|
------3-0----0-L--0-3p-0-----0-------|
----------3b-------------3-----------|

----------------------|
--3----L----3----L----|
--0----L----2----L----|
--0----L----0----L----|
----------------------|
--3----L----2----L----|

----------------------|
----------------------|
--2----L----4----L----|
--3----L----5----L----|
--3----L----5----L----|
--1----L----3----L----|

-----------------------------------|
----3------------------------------|
----2--------2-L-----------2-L-----|
----0--------2-L-----------2-L-----|
------3-0----0-L--0-3p-0---0-L-----|
----------3b-------------3------3--|

-------------------------------------|
----3----------------------------3---|
----2--------2-L-------------2---2---|
----0--------2-L-------------2---0---|
------3-0----0-L--0-3p-0-----0-------|
----------3b-------------3-----------|

----------------------|
--3----L----3----L----|
--0----L----2----L----|
--0----L----0----L----|
----------------------|
--3----L----2----L----|

-------------------------------------|
----3----------------------------3---|
----2--------2-L-------------2---2---|
----0--------2-L-------------2---0---|
------3-0----0-L--0-3p-0-----0-------|
----------3b-------------3-----------|

----------------------|
--3----L----3----L----|
--0----L----2----L----|
--0----L----0----L----|
----------------------|
--3----L----2----L----|

----------------------|
----------------------|
--2----L----4----L----|
--3----L----5----L----|
--3----L----5----L----|
--1----L----3----L----|

-----------------------------------|
----3------------------------------|
----2--------2-L-----------2-L-----|
----0--------2-L-----------2-L-----|
------3-0----0-L--0-3p-0---0-L-----|
----------3b-------------3------3--|

-------------------------------------|
----3----------------------------3---|
----2--------2-L-------------2---2---|
----0--------2-L-------------2---0---|
------3-0----0-L--0-3p-0-----0-------|
----------3b-------------3-----------|

----------------------|
--3----L----3----L----|
--0----L----2----L----|
--0----L----0----L----|
----------------------|
--3----L----2----L----|

-------------------------------------|
----3----------------------------3---|
----2--------2-L-------------2---2---|
----0--------2-L-------------2---0---|
------3-0----0-L--0-3p-0-----0-------|
----------3b-------------3-----------|

----------------------|
--3----L----3----L----|
--0----L----2----L----|
--0----L----0----L----|
----------------------|
--3----L----2----L----|

----------------------|
----------------------|
--2----L----4----L----|
--3----L----5----L----|
--3----L----5----L----|
--1----L----3----L----|

-----------------------------------|
----3------------------------------|
----2--------2-L-----------2-L-----|
----0--------2-L-----------2-L-----|
------3-0----0-L--0-3p-0---0-L-----|
----------3b-------------3------3--|

-------------------------------------|
----3----------------------------3---|
----2--------2-L-------------2---2---|
----0--------2-L-------------2---0---|
------3-0----0-L--0-3p-0-----0-------|
----------3b-------------3-----------|

----------------------|
--3----L----3----L----|
--0----L----2----L----|
--0----L----0----L----|
----------------------|
--3----L----2----L----|

-------------------------------------|
----3----------------------------3---|
----2--------2-L-------------2---2---|
----0--------2-L-------------2---0---|
------3-0----0-L--0-3p-0-----0-------|
----------3b-------------3-----------|

----------------------|
--3----L----3----L----|
--0----L----2----L----|
--0----L----0----L----|
----------------------|
--3----L----2----L----|

----------------------|
----------------------|
--2----L----4----L----|
--3----L----5----L----|
--3----L----5----L----|
--1----L----3----L----|

-----------------------------------|
----3------------------------------|
----2--------2-L-----------2-L-----|
----0--------2-L-----------2-L-----|
------3-0----0-L--0-3p-0---0-L-----|
----------3b-------------3------3--|


  Fade Out...

---------------------------------------------|
--------------3----------------------------3-|
--------------2--------2-L-------------2---2-|
--------------0--------2-L-------------2---0-|
----------------3-0----0-L--0-3p-0-----0-----|
--------------------3b-------------3---------|

----------------
L - tied note
x - dead note
g - grace note
(n) - ghost note
h - hammer on
p - pull off
b - bend
br - bendRelease
pb - preBend
pbr - preBendRelease
brb - bendReleaseBend
\n/ - tremolo bar dip
\n - tremolo bar dive
-/n - tremolo bar Release up
/n\ - tremolo bar inverted dip
/n - tremolo bar return
-\n - tremolo bar Release down

/ -  slide into from below or out of upwards
\ -  slide into from above or out of downwards





Comments


Popular Rainbow tabs & chords
Street Of Dreams 1 Chords
Catch The Rainbow Tabs
Do You Close Your Eyes Intro Tabs
Jealous Lover Tabs
Jealous Lover 1 Tabs
Lady Of The Lake Tabs
Since Youve Been Gone (Solo Ver 2) Tabs
Star Gazer Tabs
Temple Of The King 3 Tabs
Street Of Dreams Ukulele


Song lyrics



↑ Back to top | Tablatures and chords are parodies/interpretations of the original songs. You may use it for private study, scholarship, research or language learning purposes only
© 2014 AZChords.com Contact us | Privacy policy | DMCA | Add/correct tabs | Request tabs | Top 50 tabs