>
 >
Cold Hearted Woman

Cold Hearted Woman Guitar Tabs

Rainbow - Cold Hearted Woman chords, tabs, tablatures, lyrics

Guitar lessons | Add/correct | Request | Top 50 tabs Artists:  A B C D E F G H I J K L M N O P Q R S T U V W X Y Z 0-9

Cold Hearted Woman Guitar Tabs – Rainbow

CD, Sheet music, Poster

Do you like Cold Hearted Woman? Share with your friends now
Tabs
                               COLD HEARTED WOMAN
                             As recorded by Rainbow
                    (From the 1995 Album STRANGER IN US ALL)

Words and Music by Ritchie Blackmore & Doggie White


Gtr I (E A D G B E) - 'Gtr I'
Gtr II (E A D G B E) - 'Gtr II'

 Intro
 
  Am
 
  Gtr I
|-----------------------|----------------------|
|-----------------------|----------------------|
|-----------------------|----------------------|
|-----------------------|----------------------|
|-----------------------|----------------------|
|-----------------------|----------------------|
|
| Gtr II
|-----------------------|----------------------|
|-----------------------|----------------------|
|-----------------------|----------------------|
|-----------------------|----------------------|
|-------5-3---------3---|-------5-3------------|
|-0-3-5-----5-0-3-5---5-|-0-3-5-----5-0-3-5-5--|


|-----------------------|------------------------|
|-----------------------|------------------------|
|-----------------------|------------------------|
|-----------------------|------------------------|
|-----------------------|------------------------|
|-----------------------|------------------------|
|
|-----------------------|------------------------|
|-----------------------|------------------------|
|-----------------------|------------------------|
|-----------------------|------------------------|
|-------5-3---------3---|-------5-3--------------|
|-0-3-5-----5-0-3-5---5-|-0-3-5-----5-0-3-5-5----|


|-----------------------|----------------------|
|-----------------------|----------------------|
|-------7-5---------5---|-------7-5------------|
|---5-7-----7---5-7---7-|---5-7-----7---5-7-7--|
|-7-----------7---------|-7-----------7--------|
|-----------------------|----------------------|
|
|-----------------------|----------------------|
|-----------------------|----------------------|
|-----------------------|----------------------|
|-----------------------|----------------------|
|-------5-3---------3---|-------5-3------------|
|-0-3-5-----5-0-3-5---5-|-0-3-5-----5-0-3-5-5--|


|-----------------------|------------------||
|-----------------------|------------------||
|-------7-5---------5---|------------------||
|---5-7-----7---5-7---7-|---5-7----5-7-----||
|-7-----------7---------|-7------7---------||
|-----------------------|------------------||
|
|-----------------------|------------------||
|-----------------------|------------------||
|-----------------------|------------------||
|-----------------------|------------------||
|-------5-3---------3---|------------------||
|-0-3-5-----5-0-3-5---5-|-0-3-5--0-3-5-----||


   Verse
    $
    Am
||----------------------------------|----------------------------------|
||o---------------------------------|----------------------------------|
||----------------------------------|----------------------------------|
||----------7---------------5h7-----|---------7---------------5h7------|
||o---------------------------------|----------------------------------|
||--5-5-5-5-----5-5-5-5-5-5---------|-5-5-5-5-----5-5-5-5-5-5----------|
|
||----------------------------------|----------------------------------|
||o---------------------------------|----------------------------------|
||----------------------------------|----------------------------------|
||----------------------------------|----------------------------------|
||o---------------------------------|----------------------------------|
||--5-5-5-5-5-5-5-5-5-5-5-5-5-5-5-5-|-5-5-5-5-5-5-5-5-5-5-5-5-5-5-5-5--|


  D                                 Am
|---------------------------------|-----------------------|
|---------------------------------|-----------------------|
|---------7---------------5h7-----|-------7-5---------5---|
|---------------------------------|---5-7-----7---5-7---7-|
|-5-5-5-5-----5-5-5-5-5-5---------|-7-----------7---------|
|---------------------------------|-----------------------|
|
|---------------------------------|-----------------------|
|---------------------------------|-----------------------|
|---------------------------------|-----------------------|
|---------------------------------|-----------------------|
|-5-5-5-5-5-5-5-5-5-5-5-5-5-5-5-5-|-------5-3---------3---|
|---------------------------------|-0-3-5-----5-0-3-5---5-|


|----------------------|---------------------------------|
|----------------------|---------------------------------|
|-------7-5------------|---------------------------------|
|---5-7-----7---5-7-7--|---------7---------------5h7-----|
|-7-----------7--------|---------------------------------|
|----------------------|-5-5-5-5-----5-5-5-5-5-5---------|
|
|----------------------|---------------------------------|
|----------------------|---------------------------------|
|----------------------|---------------------------------|
|----------------------|---------------------------------|
|-------5-3------------|---------------------------------|
|-0-3-5-----5-0-3-5-5--|-5-5-5-5-5-5-5-5-5-5-5-5-5-5-5-5-|


                                    D
|---------------------------------|---------------------------------|
|---------------------------------|---------------------------------|
|---------------------------------|---------7---------------5h7-----|
|---------7---------------5h7-----|---------------------------------|
|---------------------------------|-5-5-5-5-----5-5-5-5-5-5---------|
|-5-5-5-5-----5-5-5-5-5-5---------|---------------------------------|
|
|---------------------------------|---------------------------------|
|---------------------------------|---------------------------------|
|---------------------------------|---------------------------------|
|---------------------------------|---------------------------------|
|---------------------------------|-5-5-5-5-5-5-5-5-5-5-5-5-5-5-5-5-|
|-5-5-5-5-5-5-5-5-5-5-5-5-5-5-5-5-|---------------------------------|


                                                 Chorus
  Am                                              G          D
|-----------------------|----------------------||------------------------|
|-----------------------|----------------------||------------------------|
|-------7-5---------5---|-------7-5------------||--------------------7---|
|---5-7-----7---5-7---7-|---5-7-----7---5-7-7--||---------5--------------|
|-7-----------7---------|-7-----------7--------||------------5-5-5-5-----|
|-----------------------|----------------------||-3-3-3-3----------------|
|
|-----------------------|----------------------||------------------------|
|-----------------------|----------------------||------------------------|
|-----------------------|----------------------||--------------------7---|
|-----------------------|----------------------||---------5------7-------|
|-------5-3---------3---|-------5-3------------||-----5------5-----------|
|-0-3-5-----5-0-3-5---5-|-0-3-5-----5-0-3-5-5--||-3----------------------|


  Am
|-------------------------------|
|-------------------------------|
|-------------------------------|
|---------7-------------5h7-----|
|-------------------------------|
|-5-5-5-5---5-5-5-5-5-5---------|
|
|-------------------------------|
|-------------------------------|
|-------------------------------|
|---------7-------------7-------|
|-------------------------------|
|-5-5-5-5---5-5-5-5-5-5-----5-5-|


  G          D            Am
|-----------------------|-------------------------------|
|-----------------------|-------------------------------|
|--------------------7--|-------------------------------|
|---------5-------------|---------7-------------5h7-----|
|------------5-5-5-5----|-------------------------------|
|-3-3-3-3---------------|-5-5-5-5---5-5-5-5-5-5---------|
|
|-----------------------|-------------------------------|
|-----------------------|-------------------------------|
|--------------------7--|-------------------------------|
|---------5------7------|---------7-------------7-------|
|-----5------5----------|-------------------------------|
|-3---------------------|-5-5-5-5---5-5-5-5-5-5-----5-5-|


  G          D            Am                              G          D   F
|-----------------------|-------------------------------|-------------------|
|-----------------------|-------------------------------|-------------------|
|--------------------7--|-------------------------------|------------7---10-|
|---------5-------------|---------7-------------5h7-----|---------5--7---10-|
|------------5-5-5-5----|-------------------------------|------------5----8-|
|-3-3-3-3---------------|-5-5-5-5---5-5-5-5-5-5---------|-3-3-3-3-----------|
|
|-----------------------|-------------------------------|-------------------|
|-----------------------|-------------------------------|-------------------|
|--------------------7--|-------------------------------|------------7---10-|
|---------5------7------|---------7-------------7-------|---------5--7---10-|
|-----5------5----------|-------------------------------|------------5----8-|
|-3---------------------|-5-5-5-5---5-5-5-5-5-5-----5-5-|-3-3-3-3-----------|


      To Coda
             D                 Am
|--------------|------------||-----------------------|
|--------------|------------||-----------------------|
|-(10)-------7-|-(7)--------||-----------------------|
|-(10)-------7-|-(7)--------||-----------------------|
|--(8)-------5-|-(5)--------||-----------------------|
|--------------|------------||-----------------------|
|
|--------------|------------||-----------------------|
|--------------|------------||-----------------------|
|-(10)-------7-|-(7)--------||-----------------------|
|-(10)-------7-|-(7)--------||-----------------------|
|--(8)-------5-|-(5)--------||-------5-3---------3---|
|--------------|------------||-0-3-5-----5-0-3-5---5-|


                        1.
|----------------------|-----------------------|-------------------||
|----------------------|-----------------------|------------------o||
|----------------------|-----------------------|-------------------||
|----------------------|-----------------------|-------------------||
|----------------------|-----------------------|------------------o||
|----------------------|-----------------------|-------------------||
|
|----------------------|-----------------------|-------------------||
|----------------------|-----------------------|------------------o||
|----------------------|-----------------------|-------------------||
|----------------------|-----------------------|-------------------||
|-------5-3------------|-------5-3---------3---|------------------o||
|-0-3-5-----5-0-3-5-5--|-0-3-5-----5-0-3-5---5-|-0-3-5--0-3-5------||


  2.
  Am
|-----12-8---12-8---10-8-0-7-0-5---------|
|----------------------------------8-6-5-|
|----------------------------------------|
|----------------------------------------|
|----------------------------------------|
|----------------------------------------|
|
|----------------------------------------|
|----------------------------------------|
|----------------------------------------|
|----------------------------------------|
|----------5--3--------------3-----------|
|-0-3--5--------5-0--3---5-------5-------|


                            Bridge
                            3/4                        2/4
|-------------------------||-------------------------||----13h15---||
|---5---------------------||-------------------------||------------||
|-7---5-4-----------------||-------------------------||------------||
|---------7\--------------||-------------------------||------------||
|-------------------------||-------------------------||------------||
|-------------------------||-------------------------||------------||
|
|-------------------------||-------------------------||------------||
|-------------------------||-------------------------||------------||
|-------------------------||-------------------------||-5----------||
|-------------------------||-------------------7-5-0-||------------||
|---------5--3------------||-------5-3-0-7-5-0-------||------------||
|-0-3-5--------5-0-3-5-5--||-5-3-0-------------------||------------||


 Guitar Solo
  Dm
 4/4
|-(15)p==13---10-------------------------|
|----------------10----------------------|
|-------------------10p9-----------------|
|------------------------12\-------------|
|----------------------------------------|
|----------------------------------------|
|
|----------------------------------------|
|----------------------------------------|
|--------------7-------------------7-----|
|----------------------------------------|
|---5--5--5-5--------5-5--5--5-5-5---5-5-|
|----------------------------------------|


  Am                                      Dm
|--------5---5-------------5------------|-----------------------------------|
|-8h10-----8---8-5-------5---5----------|-----------3-----------------------|
|--------------------7---------5--------|-----5h7-----5---5-----------------|
|--------------------------------7-(7)--|---------------7---6-5-3-5-5-------|
|---------------------------------------|-----------------------------5-3---|
|---------------------------------------|-----------------------------------|
|
|---------------------------------------|-----------------------------------|
|---------------------------------------|-----------------------------------|
|---------------------------------------|-----------7-------------7---------|
|------------7----------------------5h7-|-----------------------------------|
|---------------------------------------|-5-5---5-5---5-5-5-5-5-5-----5-5---|
|----5-5-5-5-------5---5---5-5-5-5------|-----------------------------------|


  Am
|-----------------------------------|
|-----------------------------------|
|-----------------------------------|
|-----------------------------------|
|-(3)---------------------------5h7-|
|-------5---(5)---------------------|
|
|-----------------------------------|
|-----------------------------------|
|-----------------------------------|
|------------7--------------5h7-----|
|-----------------------------------|
|--5--5-5-5-----5-5-5-5-5-5---------|


  Dm                                    Am
|-------------------------------------|----------------------------|
|-------------------------------------|----------------------------|
|-------------------------------------|----------------------------|
|-------------------------------------|----------------------------|
|-(7)---5---3-5-3---3-5-3h5---(5)-----|---------3------------------|
|-----------------5---------------5---|-3---5-5-------5------------|
|
|-------------------------------------|----------------------------|
|-------------------------------------|----------------------------|
|-----------7------------------7------|----------------------------|
|-------------------------------------|---------7-------------5h7--|
|--5--5-5-5-----5-5-5-5---5-5-----5-5-|----------------------------|
|-------------------------------------|-5-5-5-5---5-5-5-5-5-5------|


  F
|-------------------------------|
|-------------------------------|
|-------------------------------|
|-----5p0---3p0---5---5S==3-----|
|-------------------------------|
|-3-------3-----3-----------1S==|
|
|-------------------------------|
|-------------------------------|
|-------------------------------|
|---------3---------------3-----|
|-------------------------------|
|-1-1-1-1-----1-1-1-1-1-1---1-1-|


  G               E       G        Am
|-------------------------------||-------------------------|
|-------------------------------||-------------------------|
|-------------------------------||-------------------------|
|-----5-------------------------||-------7\----------------|
|-----------2-----3-0---0-5-5-7-||-------------------------|
|-3-------3---3-3-----3---------||-5-----------------------|
|
|-------------------------------||-------------------------|
|-------------------------------||-------------------------|
|-------------------------------||-------------------------|
|---------5---------------------||-------------------------|
|-------------------------------||-------5--3---------3----|
|-3-3-3-3-----3-3-0-------3-----||-0-3-5------5-0-3-5---5--|


                                                     D.S. al Coda
|----------------------|-----------------------|------------------||
|----------------------|-----------------------|------------------||
|----------------------|-----------------------|------------------||
|----------------------|-----------------------|------------------||
|----------------------|-----------------------|------------------||
|----------------------|-----------------------|------------------||
|
|----------------------|-----------------------|------------------||
|----------------------|-----------------------|------------------||
|----------------------|-----------------------|------------------||
|----------------------|-----------------------|------------------||
|-------5-3------------|-------5-3---------3---|------------------||
|-0-3-5-----5-0-3-5-5--|-0-3-5-----5-0-3-5---5-|-0-3-5--0-3-5-----||


  &
  D                        Am
|------------|----------||-----------------------|----------------------|
|------------|----------||-----------------------|----------------------|
|-(7)--------|-7--------||-----------------------|----------------------|
|-(7)--------|-7--------||-----------------------|----------------------|
|-(5)--------|-5--------||-----------------------|----------------------|
|------------|----------||-----------------------|----------------------|
|
|------------|----------||-----------------------|----------------------|
|------------|----------||-----------------------|----------------------|
|-(7)--------|-7--------||-----------------------|----------------------|
|-(7)--------|-7--------||-----------------------|----------------------|
|-(5)--------|-5--------||-------5-3---------3---|-------5-3------------|
|------------|----------||-0-3-5-----5-0-3-5---5-|-0-3-5-----5-0-3-5-5--|


|-----------------------|----------------------|
|-----------------------|----------------------|
|-------7-5---------5---|-------7-5------------|
|---5-7-----7---5-7---7-|---5-7-----7---5-7-7--|
|-7-----------7---------|-7-----------7--------|
|-----------------------|----------------------|
|
|-----------------------|----------------------|
|-----------------------|----------------------|
|-----------------------|----------------------|
|-----------------------|----------------------|
|-------5-3---------3---|-------5-3------------|
|-0-3-5-----5-0-3-5---5-|-0-3-5-----5-0-3-5-5--|


   Outro
||------------------------|----------------------|
||o-----------------------|----------------------|
||--------7-5---------5---|-------7-5------------|
||----5-7-----7---5-7---7-|---5-7-----7---5-7-7--|
||o-7-----------7---------|-7-----------7--------|
||------------------------|----------------------|
|
||------------------------|----------------------|
||o-----------------------|----------------------|
||------------------------|----------------------|
||------------------------|----------------------|
||o-------5-3---------3---|-------5-3------------|
||--0-3-5-----5-0-3-5---5-|-0-3-5-----5-0-3-5-5--|


|-----------------------|----------------------|-----------------------|
|-----------------------|----------------------|-----------------------|
|-------7-5---------5---|-------7-5------------|-------7-5---------5---|
|---5-7-----7---5-7---7-|---5-7-----7---5-7-7--|---5-7-----7---5-7---7-|
|-7-----------7---------|-7-----------7--------|-7-----------7---------|
|-----------------------|----------------------|-----------------------|
|
|-----------------------|----------------------|-----------------------|
|-----------------------|----------------------|-----------------------|
|-----------------------|----------------------|-----------------------|
|-----------------------|----------------------|-----------------------|
|-------5-3---------3---|-------5-3------------|-------5-3---------3---|
|-0-3-5-----5-0-3-5---5-|-0-3-5-----5-0-3-5-5--|-0-3-5-----5-0-3-5---5-|


|----------------------|-----------------------|-----------------------||
|----------------------|-----------------------|----------------------o||
|-------7-5------------|-------7-5---------5---|-------7-5-------------||
|---5-7-----7---5-7-7--|---5-7-----7---5-7---7-|---5-7-----7---5-7-7---||
|-7-----------7--------|-7-----------7---------|-7-----------7--------o||
|----------------------|-----------------------|-----------------------||
|
|----------------------|-----------------------|-----------------------||
|----------------------|-----------------------|----------------------o||
|----------------------|-----------------------|-----------------------||
|----------------------|-----------------------|-----------------------||
|-------5-3------------|-------5-3---------3---|-------5-3------------o||
|-0-3-5-----5-0-3-5-5--|-0-3-5-----5-0-3-5---5-|-0-3-5-----5-0-3-5-5---||


Tablature Legend
----------------
 h   - hammer-on
 p   - pull-off
 b   - bend
 pb  - pre-bend
 r   - bend release (if no number after the r, then release immediately)
 /\  - slide into or out of (from/to "nowhere")
 s   - legato slide
 S   - shift slide
  - natural harmonic
[n]  - artificial harmonic
n(n) - tapped harmonic
 ~   - vibrato
 tr  - trill
 T   - tap
 TP  - trem. picking
 PM  - palm muting
\n/  - tremolo bar dip; n = amount to dip
 \n  - tremolo bar down
 n/  - tremolo bar up
/n\  - tremolo bar inverted dip
 =   - hold bend; also acts as connecting device for hammers/pulls
 <>  - volume swell (louder/softer)
 x   - on rhythm slash represents muted slash
 o   - on rhythm slash represents single note slash

Misc Legend
-----------
 |  - bar
||  - double bar
||o - repeat start
o|| - repeat end
*|  - double bar (ending)
 :  - bar (freetime)
 $  - Segno
 &  - Coda





Comments


Popular Rainbow tabs & chords
Miss Mistreated Bass Tabs
Street Of Dreams Bass Tabs
Black Masquerade Chords
Catch The Rainbow Chords
Difficult To Cure Tabs
Hall Of The Mountain King (Intro) Tabs
Wolf To The Moon Tabs
Wolf To The Moon Intro Tabs
Bye Bye Baby Ukulele
I Surrender Ukulele


Song lyrics



↑ Back to top | Tablatures and chords are parodies/interpretations of the original songs. You may use it for private study, scholarship, research or language learning purposes only
© 2014 AZChords.com Contact us | Privacy policy | DMCA | Add/correct tabs | Request tabs | Top 50 tabs