» » »

Rainbow, Catch The RainbowSolo Tabs (ver.1)

Artists:  A B C D E F G H I J K L M N O P Q R S T U V W X Y Z # 

Catch The RainbowSolo Tabs (ver.1)

Rainbow Tabs
Rating:
0/5 (0 votes)
Catch The RainbowSolo lessons Tabs too difficult? Try these video lessons and learn fast
                E------3------------------------------------------|
B----3---5---3------------------------------------|
G--4-----------4-2-4---4-2-0-2---4p2h4p2h4p2-0----|
D----------------------------------------------2--|
A-------------------------------------------------|
E-------------------------------------------------|

E----3---------------------------5--7-5-3-----|
B--3---5---3------------------------------5---|
G-------------4-2-0-4---4-2-0-2---------------|
D---------------------------------------------|
A---------------------------------------------|
E---------------------------------------------|

E-----------5--7--10--12---14-15-17-12--7-----10--12--------|
B--5--7--8----------------------------------10---------12b--|
G-----------------------------------------------------------|
D-----------------------------------------------------------|
A-----------------------------------------------------------|
E-----------------------------------------------------------|
            

comments powered by Disqus
↑ Back to top | Rainbow Tabs for Catch The RainbowSolo. Lyrics for acoustic guitar and electric guitar. Tablatures and chords are parodies/interpretations of the original songs. You may use it for private study, scholarship, research or language learning purposes only