>
 >
A Light In The Black

A Light In The Black Guitar Tabs

Rainbow - A Light In The Black chords, tabs, tablatures, lyrics

Guitar lessons | Add/correct | Request | Top 50 tabs Artists:  A B C D E F G H I J K L M N O P Q R S T U V W X Y Z 0-9

A Light In The Black Guitar Tabs – Rainbow

CD, Sheet music, Poster

Do you like A Light In The Black? Share with your friends now
Bass TabsTabs
                            A Light in the Black 

RAINBOW RISING 1976

BLACKMORE DIO POWELL                              


VERSE/CHORUS 
--
E||-------||-------------------------|--------------------------|
B||-------||-------------------------|--------------------------|
G||-------||*------------------------|--------------------------|
D||-------||*-------5-----4----------|--5-----4-----------------|
A||-------||-----------------7-------|-----------7--L-----5--7--|
E||-------||---0-------0----------0--|-----0-----------0--------|

  
------------------------|---------------------------||------------------------|
------------------------|---------------------------||------------------------|
------------------------|--------------------------*||------------------------|
-------5-----4----------|--5-----4-----------------*||-----5-------4----------|
----------------7-------|-----------7--L-----5--7---||---------------------7--|
--0-------0----------0--|-----0-----------0---------||--0-------0-------0-----|


 
------------------------|-------------------------|------------------------|
------------------------|-------------------------|------------------------|
------------------------|-------------------------|------------------------|
------------------------|-------------------------|-------5-----4----------|
--L-----5-------3-------|-------------------------|----------------7-------|
-----0-------0-------0--|--7----0--5--5--3--2--0--|--0-------0----------0--|

 
--------------------------|------------------------|--------------------------|
--------------------------|------------------------|--------------------------|
--------------------------|------------------------|--------------------------|
--5-----4-----------------|-------5-----4----------|--5-----4-----------------|
-----------7--L-----5--7--|----------------7-------|-----------7--L-----5--7--|
-----0-----------0--------|--0-------0----------0--|-----0-----------0--------|


 
---------------------------|--------------------------|
---------------------------|--------------------------|
---------------------------|--------------------------|
---------------------------|--------------------------|
--5h--5--5--5--5--5--5--5--|--5--5--5--5--5--5--5--5--|
---------------------------|--------------------------|


    
---------------------------|--------------------------|
---------------------------|--------------------------|
---------------------------|--------------------------|
---------------------------|--------------------------|
--4S--5--5--5--5--5--5--5--|--5--5--5--5--5--5--5--5--|
---------------------------|--------------------------|


   
---------------------------|--------------------------|------------------------|
---------------------------|--------------------------|------------------------|
---------------------------|--------------------------|------------------------|
---------------------------|--------------------------|-------5-----4----------|
--4S--5--5--5--5--5--5--5--|--5--5--5--5--5--5--5--5--|----------------7-------|
---------------------------|--------------------------|--0-------0----------0--|


  
--------------------------|------------------------|--------------------------|
--------------------------|------------------------|--------------------------|
--------------------------|------------------------|--------------------------|
--5-----4-----------------|-------5-----4----------|--5-----4-----------------|
-----------7--L-----5--7--|----------------7-------|-----------7--L-----5--7--|
-----0-----------0--------|--0-------0----------0--|-----0-----------0--------|

   
---------------------------|--------------------------|
---------------------------|--------------------------|
---------------------------|--------------------------|
---------------------------|--------------------------|
--5h--5--5--5--5--5--5--5--|--5--5--5--5--5--5--5--5--|
---------------------------|--------------------------|


 
---------------------------|--------------------------|
---------------------------|--------------------------|
---------------------------|--------------------------|
---------------------------|--------------------------|
--4S--5--5--5--5--5--5--5--|--5--5--5--5--5--5--5--5--|
---------------------------|--------------------------|


  
---------------------------|--------------------------|------------------------|
---------------------------|--------------------------|------------------------|
---------------------------|--------------------------|------------------------|
---------------------------|--------------------------|-------5-----4----------|
--4S--5--5--5--5--5--5--5--|--5--5--5--5--5--5--5--5--|----------------7-------|
---------------------------|--------------------------|--0-------0----------0--|


  
--------------------------|------------------------|--------------------------|
--------------------------|------------------------|--------------------------|
--------------------------|------------------------|--------------------------|
--5-----4-----------------|-------5-----4----------|--5-----4-----------------|
-----------7--L-----5--7--|----------------7-------|-----------7--L-----5--7--|
-----0-----------0--------|--0-------0----------0--|-----0-----------0--------|

 
-------------------------|--------------------------|-------------------------|
-------------------------|--------------------------|-------------------------|
-------------------------|--------------------------|-------------------------|
-------------------------|--------------------------|-------------------------|
--3----3--3--3--3--3--3--|--3--3--3--3--3--3--3--3--|--3----3--3--3--3--3--3--|
-------------------------|--------------------------|-------------------------|


   
--------------------------|---------------------------|
--------------------------|---------------------------|
--------------------------|---------------------------|
--------------------------|---------------------------|
--3--3--3--3--3--3--3--3--|--2h--3--3--3--3--3--3--3--|
--------------------------|---------------------------|


 
-------------------------|------------------------|--------------------------|
-------------------------|------------------------|--------------------------|
-------------------------|------------------------|--------------------------|
-------------------------|-------5-----4----------|--5-----4-----------------|
--3--3--3--3--3--3--2----|----------------7-------|-----------7--L-----5--7--|
-------------------------|--0-------0----------0--|-----0-----------0--------|

   
------------------------|--------------------------|-------------------------|
------------------------|--------------------------|-------------------------|
------------------------|--------------------------|-------------------------|
-------5-----4----------|--5-----4-----------------|-------------------------|
----------------7-------|-----------7--L-----5--7--|--3----3--3--3--3--3--3--|
--0-------0----------0--|-----0-----------0--------|-------------------------|
  
--------------------------|-------------------------|--------------------------|
--------------------------|-------------------------|--------------------------|
--------------------------|-------------------------|--------------------------|
--------------------------|-------------------------|--------------------------|
--3--3--3--3--3--3--3--3--|--3----3--3--3--3--3--3--|--3--3--3--3--3--3--3--3--|
--------------------------|-------------------------|--------------------------|

 
---------------------------|-------------------------|------------------------|
---------------------------|-------------------------|------------------------|
---------------------------|-------------------------|-------5-----4----------|
---------------------------|-------------------------|----------------7-------|
--2h--3--3--3--3--3--3--3--|--3--3--3--3--3--3--x----|--0-------0----------0--|
---------------------------|-------------------------|------------------------|


   
--------------------------|------------------------|--------------------------|
--------------------------|------------------------|--------------------------|
--5-----4-----------------|-------5-----4----------|--5-----4-----------------|
-----------7--L-----5--7--|----------------7-------|-----------7--L-----5--7--|
-----0-----------0--------|--0-------0----------0--|-----0-----------0--------|
--------------------------|------------------------|--------------------------|

         
--------------------|--------------------|--------------------|
--------------------|--------------------|--------------------|
-------5------------|-------4------------|-------5------------|
-------3------------|-------2------------|-------3------------|
--3----3------------|--2----2------------|--3----3------------|
--------------------|--------------------|--------------------|

  
--------------------|--------------------|---------------------------|
--------------------|--------------------|---------------------------|
-------4------------|-------5------------|---------------------------|
-------2------------|-------3------------|---------------------------|
--2----2------------|--3----3------------|--3h--5--5--5--5--5--5--5--|
--------------------|--------------------|---------------------------|


    
--------------------------|--------------------------|--------------------|
--------------------------|--------------------------|--------------------|
--------------------------|--------------------------|-----------x--------|
--------------------------|--------------------------|--------------------|
--5--5--5--5--5--5--5--5--|--5--5--5--5--5--5--5--5--|--5-----------------|
--------------------------|--------------------------|--------------------|

REPEAT THAT TWICE THEN THERE IS A KEYBOARD SOLO 

 
|-------------------------|
|-------------------------|
|-------------------------|
|-------------------------|
|-------------------------|
|--5----5--5--5--5--5--5--|
   
-------------------------|-------------------------|------------------------|
-------------------------|-------------------------|------------------------|
-------------------------|-------------------------|------------------------|
-------------------------|-------------------------|------------------------|
-------------------------|-------------------------|--5-------5--------5----|
--5----5--5--5--5--5--5--|--5----5--5--5--5--5--5--|--3----x--3--x--x--3----|

--------------------------|--------------------------|
--------------------------|--------------------------|
--------------------------|--------------------------|
--------------------------|--------------------------|
--------------------------|--------------------------|
--5--5--5--5--5--5--5--5--|--5--5--5--5--5--5--5--5--|
                             
--------------------------|-------------------------|
--------------------------|-------------------------|
--------------------------|-------------------------|
--------------------------|-------------------------|
--------------------------|--6--5--3--5--------3----|
--5--5--5--5--5--5--5--5--|-----------------5-------|

ENDING OF KEYBOARD SOLO, KEYS AND GUITAR PLAY

  
|--------------------------|--5-----5--8--L--7--5-----|
|--6--------6-----6-----6--|-----6-----------------8--|
|--------5-----5-----5-----|--------------------------|
|-----7--------------------|--------------------------|
|--------------------------|--------------------------|
|--------------------------|--------------------------|


    
--------------------------|--------------6----5----|-------------------------|
--8--5-----8--5-----8--5--|-----8--5---------------|----------6-----6-----6--|
--------5--------5--------|--5--------5------------|-------5-----5-----5-----|
--------------------------|------------------------|--7----------------------|
--------------------------|------------------------|-------------------------|
--------------------------|------------------------|-------------------------|


  
--5-----5--8--L--7--5-----|--5--------5--------5-----|
-----6-----------------8--|-----5--------5--------5--|
--------------------------|--------6--------6--------|
--------------------------|--------------------------|
--------------------------|--------------------------|
--------------------------|--------------------------|

  
-----5--------6--5--------|--5--------5--------5-----|
--------5-----------5-----|-----6--------6--------6--|
--6--------6-----------6--|--------7--------7--------|
--------------------------|--------------------------|
--------------------------|--------------------------|
--------------------------|--------------------------|

  
-----5--------6--5--------|--------------------------|
--------6-----------8--6--|--5--------5--------5-----|
--7--------7--------------|-----6--------6--------6--|
--------------------------|--------7--------7--------|
--------------------------|--------------------------|
--------------------------|--------------------------|

  
--------------------------|--5--------5--------5-----|
-----5--------8--6--5-----|-----6--------6--------6--|
--------6--------------7--|--------7--------7--------|
--7--------7--------------|--------------------------|
--------------------------|--------------------------|
--------------------------|--------------------------|


   
-----5--------6--5--------|--------------------------|
--------6-----------8--6--|--5--------5--------5-----|
--7--------7--------------|-----6--------6--------6--|
--------------------------|--------7--------7--------|
--------------------------|--------------------------|
--------------------------|--------------------------|


       
--------------------------|--------------------------|--5-----5--8--L--7--5----|
-----5--------8--6--5-----|-----------6-----6-----6--|-----6-------------------|
--------6--------------7--|--------5-----5-----5-----|-------------------------|
--7--------7--------------|--7b----------------------|-------------------------|
--------------------------|--------------------------|-------------------------|
--------------------------|--------------------------|-------------------------|

                          
---------------------------|--7-----7--10~-----------|
------------------8-----8--|-----8-------------------|
---------7-----7-----7-----|-------------------------|
--7s--9-----9--------------|-------------------------|
---------------------------|-------------------------|
---------------------------|-------------------------|

IMPROVISATION GUITAR SOLO

GUITAR SOLO 2
 
--------|------------------------|------------------------|
--------|--7---------------------|------------------------|
---7--9-|-------9--7--9----7--6--|--7----6-----6----------|
-9------|------------------------|----------9-------9--7--|
--------|------------------------|------------------------|
--------|------------------------|------------------------|


   
-------------------|-----------------------|
-------------------|-----------------------|
-------------------|-----------------7--9--|
--9----------------|--9-----------9--------|
-------------------|-----------------------|
-------------------|-----------------------| PLAY A FEW TIMES


GUITAR TWO PLAYS THIS SAME PATTERN STARTING ON THE 15TH FRET OF THE B STRING
ALSO PLAY A FEW TIMES
--------------------------|
------------------15--17--|
--------------16----------|
--------------------------|
--------------------------|
--------------------------|
  
--14--------------------------|------------------------------|
--------17--15--17----15--14--|--15----14------14------------|
------------------------------|------------16--------16--14--|
------------------------------|------------------------------|
------------------------------|------------------------------|
------------------------------|------------------------------|


    
---------------------|---------------------------|--7-----7--10---L--9--7------|
---------------------|------------------8-----8--|-----8-------------------10--|
--16~----------------|---------7-----7-----7-----|-----------------------------|
---------------------|--7s--9-----9--------------|-----------------------------|
---------------------|---------------------------|-----------------------------|
---------------------|---------------------------|-----------------------------|


    
-----------------------------|---------------8----7----|
--10--7-----10--7-----10--7--|-----10--7---------------|
---------7---------7---------|--7---------7------------|
-----------------------------|-------------------------|
-----------------------------|-------------------------|
-----------------------------|-------------------------|

  
---------------------------|--7-----7--10---L--9--7------|
------------------8-----8--|-----8-------------------10--|
---------7-----7-----7-----|-----------------------------|
--7S--9-----9--------------|-----------------------------|
---------------------------|-----------------------------|
---------------------------|-----------------------------|


   
--7--------7--------7-----|-----7--------8--7---------|
-----7--------7--------7--|--------7-----------10--8--|
--------8--------8--------|--8--------8---------------|
--------------------------|---------------------------|
--------------------------|---------------------------|
--------------------------|---------------------------|

  
--7--------7--------7-----|-----7--------8--7---------|
-----8--------8--------8--|--------8-----------10--8--|
--------9--------9--------|--9--------9---------------|
--------------------------|---------------------------|
--------------------------|---------------------------|
--------------------------|---------------------------|

  
--------------------------|---------------------------|
--7--------7--------7-----|-----7--------10--8--7--9--|
-----8--------8--------8--|--------8------------------|
--------9--------9--------|--9--------9---------------|
--------------------------|---------------------------|
--------------------------|---------------------------|
  
--7--------7--------7-----|-----7--------8--7---------|
-----8--------8--------8--|--------8-----------10--8--|
--------9--------9--------|--9--------9---------------|
--------------------------|---------------------------|
--------------------------|---------------------------|
--------------------------|---------------------------|


  
--------------------------|---------------------------|
--7--------7--------7-----|-----7--------10--8--7--9--|
-----8--------8--------8--|--------8------------------|
--------9--------9--------|--9--------9---------------|
--------------------------|---------------------------|
--------------------------|---------------------------|

       
--------------------------|--7-----7--10---L--------|
--------7--------8-----8--|-----8-------------------|
-----------9--7-----7-----|-------------------------|
--/9----------------------|-------------------------|
--------------------------|-------------------------|
--------------------------|-------------------------|

         
-----------------------------|--9------9--12---L--------|
------------------10-----10--|-----10-------------------|
--------9------9------9------|--------------------------|
--11-------11----------------|--------------------------|
-----------------------------|--------------------------|
-----------------------------|--------------------------|

---------------------------------|--12------12--15~-----------|
---------------------13------13--|------13--------------------|
---------12------12------12------|----------------------------|
--14b--------14------------------|----------------------------|
---------------------------------|----------------------------|
---------------------------------|----------------------------|

VERSE RIFF AGAIN

END
 
------------------------|--------------------------|-----------------------|
------------------------|--------------------------|-----------------------|
------------------------|--------------------------|-----------------------|
-------5-----4----------|--5-----4-----------4-----|--------------------5--|
----------------7-------|-----------7--L--------7--|--7--------L-----7-----|
--0-------0----------0--|-----0-----------7--------|--------------7--------|

                                               
-----------------------|-----------------------|------------------------|
-----------------------|-----------------------|------------------------|
-----------------------|--------------------4--|----------5----------6--|
--------------------7--|-----------------------|------------------------|
-----------------7-----|--------------x--x-----|------------------------|
--------------7--------|-----------------------|------------------------|

ANOTHER GUITAR PLAYS SAME PATTERN STARTING 3 FRETS UP
------------------------|-------------------------|-------------------------|
------------------------|-------------------------|-------------------------|
----------7----------8--|----------9----------10--|----------11----------4--|
------------------------|-------------------------|-------------------------|
------------------------|-------------------------|-------------------------|
------------------------|-------------------------|-------------------------|

  
------------------------|------------------------|-------------------------|
------------------------|------------------------|-------------------------|
----------5----------6--|----------7----------8--|----------9----------10--|
------------------------|------------------------|-------------------------|
------------------------|------------------------|-------------------------|
------------------------|------------------------|-------------------------|

                
--------------------------|-------------------|--------------------|
--------------------------|-------------------|--------------------|
----------11----------12--|-------------------|--------------------|
--------------------------|-------------------|--------------------|
--------------------------|-------------------|--------------------|
--------------------------|-------------------|--------------------|


               
----------------------|----------------------|-------------------|
--3----3----3~--------|--3----0--------------|-------------------|
----------------------|------------2----0----|-------------------|
----------------------|----------------------|--2----------------|
----------------------|----------------------|-------------------|
----------------------|----------------------|-------------------|


                                     
-------------------||
-------------------||
--2----------------||
--2----------------||
--0----------------||
-------------------||




 





Comments


Popular Rainbow tabs & chords
Man On The Silver Mountain Bass Tabs
Since You've Been Gone Bass Tabs
Sixteenth Sentury Greensleeves Bass Tabs
Wolf To The Moon Bass Tabs
Anybody There Tabs
Can't Let You Go Tabs
Death Alley Driver Tabs
Rainbow Eyes (Intro) Tabs
Since Youve Been Gone Intro 1 Tabs
Temple Of The King Tabs


Song lyrics



↑ Back to top | Tablatures and chords are parodies/interpretations of the original songs. You may use it for private study, scholarship, research or language learning purposes only
© 2014 AZChords.com Contact us | Privacy policy | DMCA | Add/correct tabs | Request tabs | Top 50 tabs