» » »

Puteiro Em Joao Pessoa Tabs (ver.1)

Artists:  A B C D E F G H I J K L M N O P Q R S T U V W X Y Z # 

Puteiro Em Joao Pessoa Tabs (ver.1)

Raimundos
Rating:
0/5 (0 votes)
Tabs too difficult? Try these video lessons and learn fast.
                #

                           PUTEIRO EM JOAO PESSOA
                          ------------------------

  Musica:Raimundos
  Tablatura:Marcos


Riff1

 E|-------------------------------------------------------------|
 B|-------------------------------------------------------------|
 G|----4--4-4----4---4---4--4-4---------------------------------|
 D|----4--4-4----4---4---4--4-4---------------------------------|
 A|--0/2--2-2--0/2-0/2---2--2-2---------------------------------|
 E|-------------------------------------------------------------|


Riff2
 E |------------------------------------------------------------|
 B |------------------------------------------------------------|
 G |--7--7-7----7---7-------------------------------------------|
 D |--7--7-7----7---7-------------------------------------------|
 A |2/5--5-5--2/5-2/5-------------------------------------------|
 E |------------------------------------------------------------|

Riff3
 E |------------------------------------------------------------|
 B |------------------------------------------------------------|
 G |--9--9-9----9---9-------------------------------------------|
 D |--9--9-9----9---9-------------------------------------------|
 A |5/7--7-7--5/7-5/7-------------------------------------------|
 E |------------------------------------------------------------|


Riff1
A vida me presenteou com dois primos ja marmanjos, muito justo era o
Augusto, o safado era o Bersange
                 Riff2                  Riff3                  Riff1
E numa tarde ensolarada toda aquela criancada tomando refrigerante

(...)
             (E5)                     (G5)                     Riff1
Pois foi Bersange primo velho e cancrado que com muito do cuidado
chegou pra Augustinho e disse ... tu viste. Dudu ja ta alucinado ja
                   Riff2                    Riff1
eh meio caminho andado pra rolinha come alpiste
                                                           (E5)
E pro rapaz nao ficar triste nos vamos  onde as negas sao ativas, nao ha
                  (G5)                      (A5)
em toda Joao Pessoa lugar melhor que o Roda Viva, e foi pra la que nos
rumamos quase nos desenfreamos nos nao tinha nem um plano

(...)


Break no meio da musica


Riff4
 E |------------------------------------------------------------|
 B |------------------------------------------------------------|
 G |------------------------------------------------------------|
 D |------------------------------------------------------------|
 A |-2--4-5-4-5-2-2-...--7-7-7----------------------------------|
 E |-0--2/3-2/3-0-0-...--5-5-5----------------------------------|

Riff4                                             (A5)
Quando eu cheguei no recinto o forro ja tava bravo um bando de nego
                          (G5)
suando com as rapariga e o forro corria solto ...

Riff1
Foi num puteiro em Joao Pessoa
                     Riff2
descobri que a vida eh boa
                     Riff3    (B5)
foi minha primeira vez     ...

    Acordes
     E5    G5    A5     B5
  E| - - | - - |- -  | - - |
  B| - - | - - | - - | - - |
  G| - - | - - | - - | - 4 |
  D| - 2 | - 5 | - 7 | - 4 |
  A| - 2 | - 5 | - 7 | - 2 |
  E| - 0 | - 3 | - 5 | - - |
            
Tabs too difficult? Try these video lessons and learn fast.


comments powered by Disqus
↑ Back to top | Tablatures and chords are parodies/interpretations of the original songs. You may use it for private study, scholarship, research or language learning purposes only