» » »

Rage, Higher Than The Sky Tabs (ver.2)

Artists:  A B C D E F G H I J K L M N O P Q R S T U V W X Y Z # 

Higher Than The Sky Tabs (ver.2)

Rage Tabs
 Rating:
4/5 (4 votes)
Higher Than The Sky lessons Tabs too difficult? Try these video lessons and learn fast
                RAGE - "Higher Than The Sky" from the album END OF ALL DAYS


LEGEND:

b  : bend
r  : release
s  : slide
h  : hammer on
p  : pull off
() : implied note(s) created in bend, slide, or whammy

TUNE ALL STRINGS DOWN 1 STEP (DGCFAD)


INTRO

-------5--|-------5--|-------5--|-------5--||
----------|----------|----------|----------||
--5-5--4--|--7-7--2--|--5-5--4--|--7-7--2--||
--0-0--0--|--0-0--0--|--0-0--0--|--0-0--0--||
----------|----------|----------|----------||
----------|----------|----------|----------||


RIFF 1 

              repeat 3 times
----------------------------||-----||
----------------------------||-----||
----------------------------||--2--||
--7----2--------------------||--2--||
--5-5--3-2--2--------5------||--3--||
---------------3-5-5-3-3-3--||-----||


VERSE PART A
                                                                         P
-------------------------------------|--------------------------------------||
-------------------------------------|--------------------------------------||
-------------------------------------|--------------------------------------||
-3------3------3------3------3---3---|-7------7-----------------------------||
-5-5-5--5-5-5--5-5-5--5-5-5--5-5-5-5-|-5-5-5--5-5-5--2------2------2--------||
-------------------------------------|---------------3-3-3--3-3-3--3-3-5-3--||

-------------------------------------|--------------------------------------||
-------------------------------------|--------------------------------------||
-------------------------------------|--------------------------------------||
---------------2------2------2---2---|-0------2------3------3------3---3----||
-3------3------3-3-3--3-3-3--3-3-3-3-|-1-1-1--3-3-3--5-5-5--5-5-5--5-5-5-5--||
-3-3-3--3-3-3------------------------|--------------------------------------||


VERSE PART B

-------------------------------------|--------------------------------------||
-------------------------------------|--------------------------------------||
-5------5------4------4------4---4---|-7------7------2------2------2---2----||
-0-0-0--0-0-0--0-0-0--0-0-0--0-0-0-0-|-0-0-0--0-0-0--0-0-0--0-0-0--0-0-0-0--||
-------------------------------------|--------------------------------------||
-------------------------------------|--------------------------------------||


PRE CHORUS

----3---|----1---|-----------|-----------||
----2---|----3---|-----------|-----------||
----0---|----2---|-----------|--2--2-----||
--------|----0---|-----------|--3--2--2--||
--------|--------|--2--2--2--|--3--3--3--||
--------|--------|--3--3--3--|--------3--||


CHORUS

-----------|----------|-----------|--5--5--5--------------------------||
---6---5---|------6---|---6---5---|--6--6--6--------------------------||
---5---5---|------5---|---5---5---|--5--5--5-------10------12--10-----||
---7---5---|--5---7---|---7---5---|--7--7--7---12--10--12--12--10--12-||
---5---3---|--5---5---|---5---3---|--5--5--5---12------12----------12-||
-----------|--3-------|-----------|-----------------------------------||


SOLO SEGUE

--5--5--5------------------|--5--5--5--------------------------|
--6--6--6------------------|--6--6--6--------------------------|
--5--5--5-------10------12-|--5--5--5-------10------12--10-----|
--7--7--7---12--10--12--12-|--7--7--7---12--10--12--12--10--12-|
--5--5--5---12------12-----|--5--5--5---12------12----------12-|
---------------------------|-----------------------------------|

--5--5--5------------------||
--6--6--6------------------||
--5--5--5-------10------12-||
--7--7--7---12--10--12--12-||
--5--5--5---12------12-----||
---------------------------||


SOLO RHYTHM

-----------|----------|-----------|-5------5------5------5------5---5----|
---6---5---|------6---|---6---5---|-6------6------6------6------6---6----|
---5---5---|------5---|---5---5---|-5------5------5------5------5---5----|
---7---5---|--5---7---|---7---5---|-7-7-7--7-7-7--7-7-7--7-7-7--7-7-7-7--|
---5---3---|--5---5---|---5---3---|-5-5-5--5-5-5--5-5-5--5-5-5--5-5-5-5--|
-----------|--3-------|-----------|--------------------------------------|


-----------|----------|-----------||
---6---5---|------6---|---6---5---||
---5---5---|------5---|---5---5---||
---7---5---|--5---7---|---7---5---||
---5---3---|--5---5---|---5---3---||
-----------|--3-------|-----------||



SOLO

pick while bending up 1 step        p        h      s
------------------------------|-------------------------|
------------------------------|-------------------------|
------------------------------|-------------------------|
-5--5--5--5--5--5--5--5--5--5-|-5-5-3--3---3-5--3--/7-7-|
------------------------------|----------5--------------|
------------------------------|-------------------------|

           b---      p
-----------------------|-----------------|
-----------------------|-----------------|
----5--5--(7)-10--7--5-|-7--10-----------|
-7---------------------|--------10-11-12-|
-----------------------|-----------------|
-----------------------|-----------------|

                                   ---s--s                   ----b
--------------------------------------------------------|---------------|
--------------------------------------------------------|----13-(15-15)-|
-------------------------------10--12-14-12--10--12--10-|-14------------|
-15-10-12--15-10-12--15-10-12------12-14-12--12--12--12-|---------------|
--------------------------------------------------------|---------------|
--------------------------------------------------------|---------------|


    p           p      p           p      p           p      p           p

-13-10----10----------------------------------------------------------------|
-------13----13-10--13-10----10---------------------------------------------|
--------------------------12----12-10--12-10----10--------------------------|
---------------------------------------------12----12-10--12-10----10-------|
----------------------------------------------------------------12----12-10-|
----------------------------------------------------------------------------|


                                     
---------------------------------------------------------------|
---------------------------------------------------------------|
--------------------------------------------------------10--12-|
----------------------------------------------10-11-12---------|
-10-9-8--------8-9-10--------8-9-10--10-11-12------------------|
--------8-9-10--------8-9-10-----------------------------------|


 ---b--r
------------------------------------|--------------15-(15)-17-17-17--20-20-20-|
---------------------------------12-|-15-15-15--17----------------------------|
-12-14-12--10-12-12------10--12-----|-----------------------------------------|
---------------------12-------------|-----------------------------------------|
------------------------------------|-----------------------------------------|
------------------------------------|-----------------------------------------|


  ----b---r
-(22)-25-(22)-19-22-|
--------------------|
--------------------|
--------------------|
--------------------|
--------------------|


lead guitar 1
                 ----b---r
-10--8---7----------------------||
-------------8---10-(12)-10--8--||
--------------------------------||
--------------------------------||
--------------------------------||
--------------------------------||

lead guitar 2
                 ----b---r
-13--12--13--12--13-(15)-13--12-||
--------------------------------||
--------------------------------||
--------------------------------||
--------------------------------||
--------------------------------||

lead guitar 3
                 ----b---r
--------------------------------||
--------------------------------||
-7---5--------------------------||
---------9---5---7--(9)--7---5--||
--------------------------------||
--------------------------------||


SONG ORDER

INTRO (2 times)
RIFF 1
VERSE PART A (2 times)
VERSE PART B (4 times)
PRECHORUS (1 time)
CHORUS (2 times)
VERSE PART b (2 times)
RIFF 1
VERSE PART A (2 times)
VERSE PART B (4 times)
PRECHORUS (1 time)
CHORUS (2 times)
CHORUS SEGUE (1 time)
SOLO RHYTHM (1 time)
VERSE PART B (2 times)
RIFF 1 (1 time)
PRECHORUS (1 time)
CHORUS (2 times)
VERSE PART B (4 times)
            
Submit corrections

comments powered by Disqus
↑ Back to top | Rage Tabs for Higher Than The Sky. Lyrics for acoustic guitar and electric guitar. Tablatures and chords are parodies/interpretations of the original songs. You may use it for private study, scholarship, research or language learning purposes only