» » »

Baker Street Tabs (ver.2)

Artists:  A B C D E F G H I J K L M N O P Q R S T U V W X Y Z # 

Baker Street Tabs (ver.2)

Rafferty Gerry
Rating:
0/5 (0 votes)

Hard to play? Try these video lessons and learn fast.
                baker street
                             Gerry Rafferty


This is the sax riff from Baker Street tabbed for guitar. Hope you
like it.


E-----------------------------------------------------------------------|
B-----------------------------------------------------------------------|
G------10--9--7h9--7h9--7~~~--------10--9--7h9-----------------10--9----|
D---7----------------------------7--------------7~~~--------7-----------|
A-----------------------------------------------------------------------|
E-----------------------------------------------------------------------|

E-------------------------------------------------------------------------|
B-------------------------------------------------------------------------|
G---7h9--5--5--5----------------------------------------------------------|
D-----------------7~~~--------10-9-7--10p9p7--7--7-----10p9p7--7--7-------|
A--------------------------7----------------------------------------------|
E-------------------------------------------------------------------------|

E-----------------------------------------------------------------------|
B-----------------------------------------------------------------------|
G-----------------------------------------------------------------------|
D---~~~-----------------------------------------------------------------|
A-----------------------------------------------------------------------|
E-----------------------------------------------------------------------|


==                       TABLATURE EXPLANATION                        ==

----------                ----------                ----t---|
----5h8--- Hammeron       ----(8)--- Ghost          ----6---| Tap
----------                ---------- Note           --------|
----5p8--- Pulloff        ----------                --------|

----------                ----------                -----p--|
----5/8--- Slide Up       -----x---- Dead           -----7--| Pop
----------                ---------- Note           --s-----|
----5\8--- Slide Down     ----------                --5-----| Slap

----------                ||------|| Repeat         --------|
----5~~~-- Vibrato        ||*----*||                ---5^---| Bend
----------                ||*----*||                --------|
----------                ||------||                --------|

----------                ----------                --------|
-4:------- Time           ----------                --------|
-4:------- Signature      ----------                --------|
----------                ----------                --------|

Rhythm:
  w = whole note            W = dotted whole
  h = half note             H = dotted half
  q = quarter note          Q = dotted quarter
  e = eighth note           E = dotted eighth
  s = sixteenth note        S = dotted sixteenth
  t = 32nd note             T = dotted 32nd
  x = 64th note             X = dotted 64th
  ^ = triplet

==               Created with BUCKET O' TAB for Windows               ==
            
Hard to play? Try these video lessons and learn fast. | Correct




comments powered by Disqus
↑ Back to top | Tablatures and chords are parodies/interpretations of the original songs. You may use it for private study, scholarship, research or language learning purposes only