» » »

Raein, Tigersuit Tabs (ver.3)

Artists:  A B C D E F G H I J K L M N O P Q R S T U V W X Y Z # 

Tigersuit Tabs (ver.3)

Raein Tabs
Rating:
5/5 (3 votes)
Hard to play? Try these video lessons and learn fast.
                (Intro)
-------------------------------------------------------------------------------
                             Tigersuit - Raein
-------------------------------------------------------------------------------

Tuning: Drop D


Intro         NOTE: all those are numbers in the teens
e|---------------------------------------------------------------|
B|---------------------------------------------------------------|
G|-----------------------------------------14-14-14-14-14-14-----|
D|-14-14-17-16-16-16-16-16-16--12-12-14h15-X--X--X--X--X--X------|
A|-14-14-14-14-14-14-14-14-14--12-12-12----12-12-12-12-12-12-----|
E|-14-14-14-14-14-14-14-14-14--12-12-12----12-12-12-12-12-12-----|


All i got so far, the 14h15 happens quick u can barely notice it

please rate



o yeah and note, this band broke up in like 05.


| /  slide up
| \  slide down
| h  hammer-on
| p  pull-off
| ~  vibrato
| +  harmonic
| x  Mute note
===============================================================================
            

comments powered by Disqus
↑ Back to top | Raein Tabs for Tigersuit. Lyrics for acoustic guitar and electric guitar. Tablatures and chords are parodies/interpretations of the original songs. You may use it for private study, scholarship, research or language learning purposes only