» » »

Yakin Tabs (ver.2)

Artists:  A B C D E F G H I J K L M N O P Q R S T U V W X Y Z # 

Yakin Tabs (ver.2)

Radja
Rating:
0/5 (0 votes)

Hard to play? Try these video lessons and learn fast.
                Band : Radja
Lagu : Yakin
Oleh : Moldy/Ian
~~~~~~~~~~~~~~~
Tab ini, tab pertama saya. Jadi, kalau ada kesalahan mohon dimaafkan(saya kan masih SD 

INTRO:
e|---------------------------------|
b|---------------------------------|
g|----------9-7-------------9-7----|
d|10-9-7-------10-9-12-10------9-10|
a|------10-8-------------7-8-------|
e|---------------------------------|

e|--------------------------------------------|
b|-------------17-15----------------17-15-----|
g|17-16-14----------17-16-19-17----------16-17|
d|--------17-15----------------14-15----------|
a|--------------------------------------------|
e|--------------------------------------------|

VERSE:
e|------------------------------------|
b|------------------------------------|
g|-----454------454-------454------454|
d|7-777---53-333---35-555----57-777---|
a|------------------------------------|
e|------------------------------------|

REFF:
Mainkan Kunci tegak/gantung:
A D G C F B Em   2x A

Mainkan Verse, Reff

Sesudah itu, mainkan bagian ini:
A B C A B A F# 2x

The great SOLO:

e|-----------------1513-------------1513----------------------|
b|15h17h15-------------181715h13--------17h1617---------------|
g|--------14-141617-------------16-------------16-16h17h16----|
d|--------------------------------17----------------------1715|
a|------------------------------------------------------------|
e|------------------------------------------------------------|

e|-------------------------|
b|1715-------------1715----|
g|----1716-1917--------1617|
d|-------------1415--------|
a|-------------------------|
e|-------------------------|

Mainkan Verse, Reff Sampai selesai.

ENJOY!!!
            
Hard to play? Try these video lessons and learn fast. | Correct




comments powered by Disqus
↑ Back to top | Tablatures and chords are parodies/interpretations of the original songs. You may use it for private study, scholarship, research or language learning purposes only