» » »

Radja, Benci Bilang Cintabbc Tabs (ver.1)

Artists:  A B C D E F G H I J K L M N O P Q R S T U V W X Y Z # 

Benci Bilang Cintabbc Tabs (ver.1)

Radja Tabs
 Rating:
4/5 (5 votes)
Benci Bilang Cintabbc lessons Tabs too difficult? Try these video lessons and learn fast
1
                Song  :Benci Bilang Cinta(BBC)
Album :Aku Ada Karena Kau Ada


Intro: e|-----------------------------------------------------|
       b|-----------------------------------------------------|
       g|--9---9----9---9---9----9---9---9----9---9---9----9--|
       D|-7--77--777--77--77--777--77--77--777--77--77--777---|
       A|-----------------------------------------------------|
       E|-----------------------------------------------------|

       e|-----------------------|
       b|-----------------------|
       g|-----------------------|
       D|-----------------------|
       A|---------3---2---5-3---|
       E|-5---3---------------5-|

       e|-------------------------------------------------|
       b|-------------------------------------------------|
       g|-------------------------------------------------|
       D|-------------------------------------------------|
       A|-------------------------------------------------|
       E|-578--754--457--545--578--754-444-03035----------| (x2)

Am:XXX555
Em:XXX454
these two tabs used only at the verse part...

  
A:577XXX
B:X244XX
C:X355XX
D:X577XX
E:022XXX
F:133XXX
G:355XXX
                             Em
Verse 1:Sudah berulang kali aku percaya
      Am               Em
        Namun ternyata tak ada beda
      C                       D
        Kau anggap mudah yang menurutku salah
               F                                     E
        hingga aku menyangka diri ini bagaikan tak berarti dimatamu  

        Am                   Em
Verse 2:Bilakau malam gelap aku bintangmu
      Am                    Em    
        Ku terangi dirimu dengan cintaku
      C               D                      F
        Agar kau bisa mencintai cinta dan menyayangi cinta 
                               E
        Setulus kau menyayangi dirimu...kekasihku..

         A      D     
Chorus 1:Jangan benci bilang cinta
        G      C
        Jangan marah bilang sayang
        F         B                   E
        Jangan mendustai hati bila engkau memang suka
        A          D          G         C
        Jangan kau merasa jauh bila kau dekat denganku
        F          B                       E
        Jangan kau menganggap cinta mudah datang mudah pergi


       e|-------------------------------------------------|
       b|-------------------------------------------------|
       g|-------------------------------------------------|
       D|-------------------------------------------------|
       A|-------------------------------------------------|
       E|-578--754--457--545--578--754-444-03035----------| 

Note :the first Am on verse 3 should be played a bit early

      Am                   Em
Verse 3:Bilakau malam gelap aku bintangmu
      Am                    Em    
        Ku terangi dirimu dengan cintaku
      C               D                      F
        Agar kau bisa mencintai cinta dan menyayangi cinta 
                               E
        Setulus kau menyayangi dirimu...kekasihku..

         A      D     
Chorus 2:Jangan benci bilang cinta
        G      C
        Jangan marah bilang sayang
        F         B                   E
        Jangan mendustai hati bila engkau memang suka
        A          D          G         C
        Jangan kau merasa jauh bila kau dekat denganku
        F          B                       E
        Jangan kau menganggap cinta mudah datang mudah pergi


Interlude:F,C,G(x2)
          G,A,B,G,A,B,C,A


                                  B,C,D
Chorus 3:Jangan benci bilang cinta
        G      C
        Jangan marah bilang sayang
        F         B                   E
        Jangan mendustai hati bila engkau memang suka
        A          D          G         C
        Jangan kau merasa jauh bila kau dekat denganku
        F          B                       E
        Jangan kau menganggap cinta mudah datang mudah pergi

        A      D    G    C
        Nana...na...na...na...
        F          B                     E                 A
        Jangan kau meganggap cinta mudah datang mudah pergi..


       e|---------------------------------------------------|
       b|---------------------------------------------------|
       g|---------------------------------------------------|
       D|---------------------------------------------------|
       A|---------------------------------------------------|
       E|-578--754--457--545--578--754-444-0303--(A)--------| 
            
Submit corrections

comments powered by Disqus
↑ Back to top | Radja Tabs for Benci Bilang Cintabbc. Lyrics for acoustic guitar and electric guitar. 1 Tablatures and chords are parodies/interpretations of the original songs. You may use it for private study, scholarship, research or language learning purposes only