» » »

Lucky Dutch Tabs (ver.1)

Artists:  A B C D E F G H I J K L M N O P Q R S T U V W X Y Z # 

Lucky Dutch Tabs (ver.1)

Radio Moscow
Rating:
3/5 (5 votes)

Tabs too difficult? Try these video lessons and learn fast.
                -------------------------------------------------------------------------------
                             SONG NAME - Band Name
-------------------------------------------------------------------------------

Tuning: Standard


Intro:
e|----------------|--------------------------|-----------------------|
B|----------------|--------------------------|-----------8~----------|
G|----------------|---9-9p7------------------|--9-9p7-------9p7h9~---|
D|----------------|---------9-7--7p5---------|--------9--------------|
A|-----5~--7p5----|--------------------7-5-7-|-----------------------|
E|-5h7---------7--|--------------------------|-----------------------|

e|-------------------------|--------------------------------|
B|-------------------------|-----------8~-------------------|
G|--9-9p7------------------|--9-9p7-------9p7h9~------------|
D|--------9-7--7p5---------|--------9-----------------------|
A|-------------------7-5-7-|--------------------------------|
E|-------------------------|--------------------------------|

e|-------------------------|--------------------------------|
B|-------------------------|-----------8~-------------------|
G|--9-9p7------------------|--9-9p7-------9--9/14~----------|
D|--------9-7--7p5---------|--------9-----------------------|
A|-------------------7-5-7-|--------------------------------|
E|-------------------------|--------------------------------|

e|-------------------------|--------------------------------|
B|-------------------------|-----------8~-------------------|
G|--9-9p7------------------|--9-9p7-------9p7h9~------------|
D|--------9-7--7p5---------|--------9-----------------------|
A|-------------------7-5-7-|--------------------------------|
E|-------------------------|--------------------------------|

Verse:______
e|----------------------------------------------------------|               |
B|----------------------------------------------------------|               |
G|----------------------------------------------------------|              |
D|---------------------------------2------------------------|              |
A|--7-7-9-7---7-9-7---7-9-7--------2------------------------|              |
E|--5-5-5-5---5-5-5---5-5-5--/15---0---3~-------------------|               |
                                                                            
e|-------------------------|--------------------------------|               |
B|-------------------------|-----------8~-------------------|               |
G|--9-9p7------------------|--9-9p7-------9p7h9~------------|              |
D|--------9-7--7p5---------|--------9-----------------------|              |
A|-------------------7-5-7-|--------------------------------|              |
E|-------------------------|--------------------------------|     _____|

e|----------------------------------------------------------|
B|----------------------------------------------------------|
G|----------------------------------------------------------|
D|-----------------------------------2----------------------|
A|--9-9-11-9---9-11-9---7-9-7--------2----------------------|
E|--7-7--7-7---7--7-7---5-5-5--/15---0---3~--h3~------------|


JUST REPEAT THIS THROUGH THE SONG. (improvise the solo)


************************************

| /   slide up
| \   slide down
| h   hammer-on
| p   pull-off
| ~   vibrato
| +   harmonic
| x   Mute note
| b   Bend
| pb  Pre-bend
| br  Bend release
| pbr Pre-bend release
| brb Bend release bend

************************************
            
Tabs too difficult? Try these video lessons and learn fast.


comments powered by Disqus
↑ Back to top | Tablatures and chords are parodies/interpretations of the original songs. You may use it for private study, scholarship, research or language learning purposes only