>
 >
Brain Cycles 1

Brain Cycles 1 Guitar Tabs

Radio Moscow - Brain Cycles 1 chords, tabs, tablatures, lyrics

Guitar lessons | Add/correct | Request | Top 50 tabs Artists:  A B C D E F G H I J K L M N O P Q R S T U V W X Y Z 0-9

Brain Cycles 1 Guitar Tabs – Radio Moscow

CD, Sheet music, Poster

Do you like Brain Cycles 1? Share with your friends now
TabsTabs v2
Intro part 1:
|-------------------|-----------------|-------------------|xxxxxxxxxxxxxxxxx|
|-------------------|-----------------|-------------------|xxxxxxxxxxxxxxxxx|
|-------------------|-----------------|-------------------|xxxxxxxxxxxxxxxxx|
|-------------------|----------------5|-------------------|xxxxxxxxxxxxxxxxx|
|-------7--7777p5---|-------7--7775p7-|-------7--7777p5---|xxxxxxxxxxxxxxxxx|
|0--0-3/---------3--|-0--0-3/---------|0--0-3/---------3--|xxxxxxxxxxxxxxxxx|

Intro part 2:
|-------------------|-----------------|-------------------|-----------------|
|-------------------|-----------------|-------------------|-----------------|
|-------------------|----------------5|-------------------|--------5--------|
|-------7--7777p5---|-------7--7775p7-|-------7--7777p5---|----------7------|
|0--0-3/---------3--|-0--0-3/---------|0--0-3----------3--|0h3-5h7----------|
                                         
|-------------------|-------------------|-----------------|
|-------------------|-------------------|-----------------|
|-------------------|-----------0-------|-----------------|
|-------------------|-------0h2---2p0-0-|-----------------|
|5h7p5--5-----------|---0h2----------2--|2p0--------------|
|------7--7-6-5-----|0h3----------------|---3-------------|

Intro part 2 is played 3 times, then:

|-------------------|-----------------|---7---7-10p7------|7----------------|
|-------------------|-----------------|10b-10b------10-10b|--10h8--10-10-8--|
|9-9-9-9-9p7-7------|-----------------|-------------------|------9---------9|
|-----------9-9p7-9-|5----------------|-------------------|-----------------|
|-------------------|-----------------|-------------------|-----------------|
|-------------------|-----------------|-------------------|-----------------|

|----12---12-15p12--|---12-----12---12|12-----------------|17b-17p15---15---|
|15b---15b--------15|15b----15b--15b--|15b----------------|---------17---17-|
|-------------------|-----------------|-------------------|-----------------|
|-------------------|-----------------|-------------------|-----------------|
|-------------------|-----------------|-------------------|-----------------|
|-------------------|-----------------|-------------------|-----------------|

|-----15-17bp15-----|15---------------|
|15h17---------17---|--1717-----------|
|-------------------|-----------------|
|-------------------|-----------------|
|-------------------|-----------------|
|-------------------|-----------------|

Then:

|-------------------|-----------------|-------------------|-----------------|
|-------------------|-----------------|-------------------|-----------------|
|-------------------|-----------------|-------------------|-----------------|
|-------------------|-----------------|-------------------|-----------------|
|------7-777p5------|-----7-777p5-5-6-|------7-777p5------|-----7-777p5-5-6-|
|(0)(0)--------3-5--|(0)(0)-----------|(0)(0)--------3-5--|(0)(0)-----------|


|-------------------|-----------------|-------------------|-----------------|
|-------------------|-----------------|-------------------|-----------------|
|-------------------|-----------------|-------------------|-----------------|
|-------------------|-------------5-6-|----7-777p5--------|----7-777p5------|
|------7-777p5------|-----7-777p5-----|0-0--------3-5-----|0-0--------5-6---|
|(0)(0)--------3-5--|(0)(0)-----------|-------------------|-----------------|

And then he... Does alot of soloing which I can't be arsed to figure out. Maybe some other time.





Comments


Popular Radio Moscow tabs & chords
Frustrating Sound Bass Tabs
No Good Woman Bass Tabs
250 Miles Tabs
Brain Cycles Tabs
Creepin Tabs
Frustrating Sound Tabs
Lucky Dutch Tabs
Lucky Dutch 1 Tabs
Mistreating Queen Tabs
The Escape Intro Tabs


Song lyrics



↑ Back to top | Tablatures and chords are parodies/interpretations of the original songs. You may use it for private study, scholarship, research or language learning purposes only
© 2014 AZChords.com Contact us | Privacy policy | DMCA | Add/correct tabs | Request tabs | Top 50 tabs