>
 >
250 Miles 1

250 Miles 1 Guitar Tabs

Radio Moscow - 250 Miles 1 chords, tabs, tablatures, lyrics

Guitar lessons | Add/correct | Request | Top 50 tabs Artists:  A B C D E F G H I J K L M N O P Q R S T U V W X Y Z 0-9

250 Miles 1 Guitar Tabs – Radio Moscow

CD, Sheet music, Poster

Do you like 250 Miles 1? Share with your friends now
TabsTabs v2
-----------------------------------------------------------------------------
bluesy-guitar tune. Enjoy.
-----------------------------------------------------------------------------
Track: "250 Miles"
Tab for: Guitar
Tuning: Standard
-----------------------------------------------------------------------------
| /   slide up
| \   slide down
| h   hammer-on
| p   pull-off
| ~   vibrato
-----------------------------------------------------------------------------
(0:00)
d|---------------------------|----------------------|
A|---------------------------|----------------------|
F|---------------------------|----------------------|
C|---------------------------|---------5-7-5-----5b-|
G|---7-----7-5~--------------|---7-5h7-------5h7----|
D|-0---(0)------0-5-(5)-5-3~-|-0--------------------|

d|---------------------------|----------------------|
A|---------------------------|----------------------|
F|---------------------------|----------------------|
C|---------------------------|---------5-7-5-----5b-|
G|---7-----7-5~--------------|---7-5h7-------5h7----|
D|-0---(0)------0-5-(0)-5-3~-|-0--------------------|

(0:12)
d|---------------------------|---------------------------------|
A|---------------------------|---------------------------------|
F|---------------------------|---9---7/9-9-9p7-----------------|
C|---------------------------|-----9-----------7-8-8-8-8p7p5---|
G|---7-----7-5~--------------|-------------------------------7-|
D|-0---(0)------0-5-(5)-5-3~-|-0-------------------------------|

d|---------------------------|-----------------------|
A|---------------------------|-----------------------|
F|---------------------------|-----------------------|
C|---------------------------|---------5-------------|
G|---7-----7-5~--------------|---7-5h7---7p5-0-------|
D|-0---(0)------0-5-(0)-5-3~-|-0---------------3-5-3-|

(0:25)
d|---------------------------|-----------------------|
A|---------------------------|-----------------------|
F|---------------------------|-----------------------|
C|---------------------------|---------5-7-5-------5-|
G|---7-----7-5~--------------|---7-5h7-------5h6h7---|
D|-0---(0)------0-5-(5)-5-3~-|-0---------------------|

d|---------------------------|------------------------|
A|---------------------------|------------------------|
F|---------------------------|------------------------|
C|---------------------------|---------5-7-5-------5b-|
G|---7-----7-5~--------------|---7-5h7-------5h6h7----|
D|-0---(0)------0-5-(0)-5-3~-|-0----------------------|

(0:37)
d|---------------------------|------------------------|
A|---------------------------|------------------------|
F|---------------------------|------------------------|
C|---------------------------|---------5-7-5-------5b-|
G|---7-----7-5~--------------|---7-5h7-------5h6h7----|
D|-0---(0)------0-5-(5)-5-3~-|-0----------------------|

d|---------------------------|---------------------|
A|---------------------------|---------------------|
F|---------------------------|---------------------|
C|---------------------------|---------5-7-5-----5-|
G|---7-----7-5~--------------|---7-5h7-------5h7---|
D|-0---(0)------0-5-(0)-5-3~-|-0-------------------|

(0:50)
d|---------------------|------------------------|
A|---------------------|------------------------|
F|---------------------|------------------------|
C|---7---5~------------|----------5~------------|
G|-----7----7----------|-------7-----7----------|
D|-5----------(0)-5-3~-|-5-5-5---------(0)-5-3~-|

d|---------------------------|---------------------|
A|---------------------------|---------------------|
F|---------------------------|---------------------|
C|---------------------------|---------5-7-5-----5-|
G|---7-----7-5~--------------|---7-5h7-------5h7---|
D|-0---(0)------0-5-(0)-5-3~-|-0-------------------|

(1:02)
d|--------------------------------|-------------------------|
A|--------------------------------|-------------------------|
F|--------------------------------|-------------------------|
C|-------7-----7-----7-----7------|-------5-----5-----5-----|
G|-----9---7h9---7h9---7h9---7/9\-|-----7---5h7---5h7-------|
D|-7-7----------------------------|-5-5-----------------5-3-|

d|---------------------------|-----------------------------------|
A|---------------------------|-----------------------------------|
F|---------------------------|---9---7/9-9-9p7-------7-7---------|
C|---------------------------|-----9-----------7-7h9-9-9-9p7p5---|
G|---7-----7-5~--------------|---------------------------------7-|
D|-0---(0)------0-5-(0)-5-3~-|-0---------------------------------|

(1:15)
d|---------------------------|----15b17-15p12----12-12-12-12/-----|
A|---------------------------|----------------15----12-12---------|
F|---------------------------|--------------------------------12~-|
C|---------------------------|------------------------------------|
G|---7-----7-5~--------------|------------------------------------|
D|-0---(0)------0-5-(5)-5-3~-|-0----------------------------------|

d|---------------------------|-----------------------|
A|---------------------------|-----------------------|
F|---------------------------|-----------------------|
C|---------------------------|---------5-7-5-------5-|
G|---7-----7-5~--------------|---7-5h7-------5h6h7---|
D|-0---(0)------0-5-(0)-5-3~-|-0---------------------|

(1:27)
d|---------------------------|----------------------|
A|---------------------------|----------------------|
F|---------------------------|----------------------|
C|---------------------------|---------5-7-5-----5b-|
G|---7-----7-5~--------------|---7-5h7-------5h7----|
D|-0---(0)------0-5-(5)-5-3~-|-0--------------------|

d|---------------------------|------------------------|
A|---------------------------|------------------------|
F|---------------------------|------------------------|
C|---------------------------|---------5-7-5-------5b-|
G|---7-----7-5~--------------|---7-5h7-------5h6h7----|
D|-0---(0)------0-5-(0)-5-3~-|-0----------------------|

(1:40)
d|---------------------------|----------------------|
A|---------------------------|----------------------|
F|---------------------------|----------------------|
C|---------------------------|---------5-7-5-----5b-|
G|---7-----7-5~--------------|---7-5h7-------5h7----|
D|-0---(0)------0-5-(5)-5-3~-|-0--------------------|

d|---------------------|-------------------------|
A|---------------------|-------------------------|
F|---------------------|-------------------------|
C|---7---5~------------|----------5~-------------|
G|-----7----7----------|-------7-----7p5p0-------|
D|-5----------(0)-5-3~-|-5-5-5--------------5-3~-|

(1:52)
d|---------------------------|----------------------|
A|---------------------------|----------------------|
F|---------------------------|----------------------|
C|---------------------------|---------5-7-5-----5b-|
G|---7-----7-5~--------------|---7-5h7-------5h7----|
D|-0---(0)------0-5-(5)-5-3~-|-0--------------------|

d|--------------------------------|-------------------------|
A|--------------------------------|-------------------------|
F|--------------------------------|-------------------------|
C|-------7-----7-----7-----7------|-------5-----5-----5-----|
G|-----9---7h9---7h9---7h9---7/9\-|-----7---5h7---5h7-------|
D|-7-7----------------------------|-5-5-----------------5-3-|

(2:05) *solo starts (blues scale)*
d|---------------------------|----------------------|
A|---------------------------|----------------------|
F|---------------------------|----------------------|
C|---------------------------|---------5-7-5-----5b-|
G|---7-----7-5~--------------|---7-5h7-------5h7----|
D|-0---(0)------0-5-(5)-5-3~-|-0--------------------|

d|---------------------------|----------------------|
A|---------------------------|----------------------|
F|---------------------------|----------------------|
C|---------------------------|---------5-7-5-----5b-|
G|---7-----7-5~--------------|---7-5h7-------5h7----|
D|-0---(0)------0-5-(0)-5-3~-|-0--------------------|

(2:17)
d|---------------------------|----------------------|
A|---------------------------|----------------------|
F|---------------------------|----------------------|
C|---------------------------|---------5-7-5-----5b-|
G|---7-----7-5~--------------|---7-5h7-------5h7----|
D|-0---(0)------0-5-(5)-5-3~-|-0--------------------|

d|---------------------------|----------------------|
A|---------------------------|----------------------|
F|---------------------------|----------------------|
C|---------------------------|---------5-7-5-----5b-|
G|---7-----7-5~--------------|---7-5h7-------5h7----|
D|-0---(0)------0-5-(0)-5-3~-|-0--------------------|

(2:29)
d|---------------------------|----------------------|
A|---------------------------|----------------------|
F|---------------------------|----------------------|
C|---------------------------|---------5-7-5-----5b-|
G|---7-----7-5~--------------|---7-5h7-------5h7----|
D|-0---(0)------0-5-(5)-5-3~-|-0--------------------|

d|-------------------------|-------------------------|
A|-------------------------|-------------------------|
F|-------------------------|-------------------------|
C|---7---5~----------------|----------5~-------------|
G|-----7----7p5p0----------|-------7-----7p5p0-------|
D|-5--------------(0)-5-3~-|-5-5-5--------------5-3b-|

(2:54)
d|---------------------------|----------------------|-------------------------------------|
A|---------------------------|----------------------|-------------------------------------|
F|---------------------------|----------------------|---9---7/9-9-9p7---------------------|
C|---------------------------|---------5-7-5-----5b-|-----9-----------7-7h8h9-8-8-8p7p5---|
G|---7-----7-5~--------------|---7-5h7-------5h7----|-----------------------------------7-|
D|-0---(0)------0-5-(5)-5-3~-|-0--------------------|-0-----------------------------------|

(3:00)
d|--------------------------------------|--------------------------------------|
A|--------------------------------------|--------------------------------------|
F|--------------------------------------|--------------------------------------|
C|--------------------------------------|--------------------------------------|
G|---7---7---7----7---7---7-7p5-0-------|---7---7---7----7---7---7-7p5-0-------|
D|-0-0-0-0-0-0--0-0-0-0-0-0-------3-(5)-|-0-0-0-0-0-0--0-0-0-0-0-0-------3-(5)-|

(3:07)
d|--------------------------------------|----------------------------------------|
A|--------------------------------------|----------------------------------------|
F|--------------------------------------|----------------------------------------|
C|--------------------------------------|----------------------------------------|
G|-5h7-7-7-7--5h7-7-7--5h7-7-7--7p5-0---|-5h7-7-7-7--5h7-7-7--5h7-7-7--5p7-7-7-7-|
D|-0----------0--------0--------------3-|-0----------0--------0--------0---------|

(3:13)
d|-----------------------------|-------------------------------|
A|-----------------------------|-------------------------------|
F|-----------------------------|-------------------------------|
C|-----------------------------|-------------------------------|
G|-7-7-9--7-7-9--7-7-9--7-7----|-----7-7-----------7-7-7p5-0---|
D|-5-5-5--5-5-5--5-5-5--5-5-3b-|-0-0-----0-3b--0-0-----------3-|

(3:20)
d|-------------------------------|----------------------------------|
A|-------------------------------|----------------------------------|
F|-------------------------------|----------------------------------|
C|-------------------------------|----------------------------------|
G|-9-9-11--9-9-11--7-7-9--7-7----|-------7-7p5-0----------7-7p5-0---|
D|-7-7-7---7-7-7---5-5-5--5-5-3b-|-(0)-0---------3--(0)-0---------3-|

(3:26)
d|------------------------------------|
A|------------------------------------|
F|------------------------------------|
C|------------------------------------|
G|-------7-7p5-0----------7-7p5-0-----|
D|-(0)-0---------3b--(0)-0---------3b-|

(3:29)
d|-------------------------------|-----------------------------|
A|-------------------------------|-----------------------------|
F|-------------------------------|-----------------------------|
C|------------5------------------|------------7-5--------------|
G|----5-7-7-7---7--7p5-----------|----5-7-7-7------7p5---5-7-7-|
D|-/7------------------7p6-5-3-0-|-/7------------------7-------|

(3:36)
d|--------------------------------|-------------------5-7-|
A|--------------------------------|---------------5-8-----|
F|--------------------------------|-----------4-7---------|
C|--------------------------------|-------5-7-------------|
G|-CRAZY IMPROV USING THESE NOTES-|---5-7-----------------|
D|--------------------------------|-7---------------------|

(3:41)
d|-----------------------------|-------------------------------|
A|-----------------------------|-------------------------------|
F|-----------------------------|-------------------------------|
C|-----------------------------|-------------------------------|
G|-7-7-9--7-7-9--7-7-9--7-7----|-----7-7-----------7-7-7p5-0---|
D|-5-5-5--5-5-5--5-5-5--5-5-3b-|-0-0-----0-3b--0-0-----------3-|

(3:48)
d|-------------------------------|----------------------------------|
A|-------------------------------|----------------------------------|
F|-------------------------------|----------------------------------|
C|-------------------------------|----------------------------------|
G|-9-9-11--9-9-11--7-7-9--7-7----|-------7-7p5-0----------7-7p5-0---|
D|-7-7-7---7-7-7---5-5-5--5-5-3b-|-(0)-0---------3--(0)-0---------3-|

(3:54)
d|------------------------------------|
A|------------------------------------|
F|------------------------------------|
C|------------------------------------|
G|-------7-7p5-0----------7-7p5-0-----|
D|-(0)-0---------3b--(0)-0---------3b-|

(3:57)
d|------------------|-------------------------------|
A|------------------|-------------------------------|
F|------------------|-------------------------------|
C|------------------|-------------------------------|
G|-7-9-5-9--7-9-5-9-|-----7-7-----------7-7-7p5-0---|
D|-5-5-5-5--5-5-5-5-|-0-0-----0-3b--0-0-----------3-|

(4:04)
d|-----------------------------|-------------------------------|
A|-----------------------------|-------------------------------|
F|-----------------------------|-------------------------------|
C|-----------------------------|-------------------------------|
G|-7-7-9--7-7-9--7-7-9--7-7----|-----7-7-----------7-7-7p5-0---|
D|-5-5-5--5-5-5--5-5-5--5-5-3b-|-0-0-----0-3b--0-0-----------3-|

(4:10)
d|-------------------------------|----------------------------------|
A|-------------------------------|----------------------------------|
F|-------------------------------|----------------------------------|
C|-------------------------------|----------------------------------|
G|-9-9-11--9-9-11--7-7-9--7-7----|-------7-7p5-0----------7-7p5-0---|
D|-7-7-7---7-7-7---5-5-5--5-5-3b-|-(0)-0---------3--(0)-0---------3-|

(4:16)
d|------------------------------------|
A|------------------------------------|
F|------------------------------------|
C|------------------------------------|
G|-------7-7p5-0----------7-7p5-0-----|
D|-(0)-0---------3b--(0)-0---------3b-|

(4:19)
d|----------------------------|
A|----------------------------|
F|----------------------------|
C|-------5--------------------|
G|---5-7----7p5-------------2-|
D|-7------------7-7p6-5-3b--0-|

*Feedback*...





Comments


Popular Radio Moscow tabs & chords
Frustrating Sound Bass Tabs
Mistreating Queen Bass Tabs
No Good Woman Bass Tabs
250 Miles Tabs
Brain Cycles Tabs
Brain Cycles 1 Tabs
Frustrating Sound Tabs
Lick Skillet Tabs
Mistreating Queen Tabs
Timebomb 1 Tabs


Song lyrics



↑ Back to top | Tablatures and chords are parodies/interpretations of the original songs. You may use it for private study, scholarship, research or language learning purposes only
© 2014 AZChords.com Contact us | Privacy policy | DMCA | Add/correct tabs | Request tabs | Top 50 tabs