» » »

Radiohead, Unklerabit In Your Headlights Tabs (ver.1)

Artists:  A B C D E F G H I J K L M N O P Q R S T U V W X Y Z # 

Unklerabit In Your Headlights Tabs (ver.1)

Radiohead Tabs
4/5 (4 votes)
Unklerabit In Your Headlights lessons Tabs too difficult? Try these video lessons and learn fast
                e ----------------------*
b ---3----/2------------*
g ---4----/3-----0-----2* 6X
D ---5----/4-----2-----0*
A ------------0--3---2-2*
E 0*----0*--------------*

     A     C5# 
e ------------*
b ---2-----5--*
g ---2-----6--* 2X
D ---2-----6--*
A 0-----4-----*
E ------------*

D--------4--------------4----------4--------------4--* repeat
Submit corrections

comments powered by Disqus
↑ Back to top | Radiohead Tabs for Unklerabit In Your Headlights. Lyrics for acoustic guitar and electric guitar. Tablatures and chords are parodies/interpretations of the original songs. You may use it for private study, scholarship, research or language learning purposes only