» » »

Radiohead, The Butcher Bass tabs (ver.1)

Artists:  A B C D E F G H I J K L M N O P Q R S T U V W X Y Z # 

The Butcher Bass tabs (ver.1)

Radiohead Tabs
 Rating:
4/5 (4 votes)
The Butcher lessons Tabs too difficult? Try these video lessons and learn fast
1
                Radiohead
The Butcher

It's a synthesizer, I think, but I feel the spirit of a bass. Pretty simple.

Intro

G|-4---------------------------------------|
D|-----------2-----------------------2-----|
A|-------------------2---------------------|
E|---------------------------3-------------|


G|-----------------------------------------|
D|--2----------------------5--------2------|
A|---------2-------------------------------|
E|-----------------3-----------------------|

Verse (Beauty...)

G|-----------------------------------------|
D|--2-------------------------------2------|
A|---------2---------------5---------------|
E|-----------------3-----------------------|

Verse (I was confused...)

G|-----------------------------------------|
D|-2--------------------------------2------|
A|---------2---------------5---------------|
E|-----------------3-----------------------|

Break (Oooooo-ooooo-Oooooo...)

G|-----------------------------------------|
D|-2---------------------------------------|
A|---------2---------------2--------0------|
E|-----------------3-----------------------|

G|-----------------------------------------|
D|-2--------------------------------2------|
A|---------2---------------5---------------|
E|-----------------3-----------------------|

Verse (Courses up my arms...)

G|-----------------------------------------|
D|--2----------------------5--------2------|
A|---------2-------------------------------|
E|-----------------3-----------------------|

Verse (Basic combination...)

G|-----------------------------------------|
D|--2----------------------5--------2------|
A|---------2-------------------------------|
E|-----------------3-----------------------|

Breakishdown

"My heart's still pumping..."
G|-------------------|
D|-----------------2-|
A|---------2---------|
E|--3----------------|

Repeat this until next verse

G|--------------------------------------------------------------------------|
D|-2-2-2---2-2-2--------------------------------5-5-5---5-5-5--2-2-2---2-2-2|
A|----------------2-2-2---2-2-2---------------------------------------------|
E|-------------------------------3-3-3---3-3-3------------------------------|

G|----------------|
D|-2-2-2---2-2-2--|
A|----------------|
E|----------------|

Verse (He's a warrior!!!)
G|-----------------------------------------|
D|--2----------------------5--------2------|
A|---------2-------------------------------|
E|-----------------3-----------------------|

You guys get the idea. Rock on, Radiohead. 
            
Submit corrections

comments powered by Disqus
↑ Back to top | Radiohead Bass for The Butcher. Lyrics for acoustic guitar and electric guitar. 1 Tablatures and chords are parodies/interpretations of the original songs. You may use it for private study, scholarship, research or language learning purposes only