» » »

Radiohead, Pearly Tabs (ver.1)

Artists:  A B C D E F G H I J K L M N O P Q R S T U V W X Y Z # 

Pearly Tabs (ver.1)

Radiohead Tabs
Rating:
0/5 (0 votes)
Hard to play? Try these video lessons and learn fast.
                Jonny's intro for Pearly (as played on Meeting People is Easy)

e--12-------12-----------------------------15-12-----------------------------------------------------------
B-----13-13----13-13----10--13--10-----------13---------------10-13---10-13---10-13---10--
G-----------------------------------------------------------12-------------------------------------------------
D----------------------------------------------------------------------------------------------------------------
A----------------------------------------------------------------------------------------------------------------
E----------------------------------------------------------------------------------------------------------------
  
e-------------------------------------------------------------------------------------
B-------------------------------------------------------------------------------------
G--13-16---13-16---13-16--16-16-16-16-16-16-16--------------------
D-------------------------------------------------------------------------------------
A-------------------------------------------------------------------------------------
E-------------------------------------------------------------------------------------
  


    Guitar Archive at Planet Telex
Max Kolombos 
---------------------------------------
            

comments powered by Disqus
↑ Back to top | Radiohead Tabs for Pearly. Lyrics for acoustic guitar and electric guitar. Tablatures and chords are parodies/interpretations of the original songs. You may use it for private study, scholarship, research or language learning purposes only