» » »

Morning Mr Magpie Bass tabs (ver.1)

Artists:  A B C D E F G H I J K L M N O P Q R S T U V W X Y Z # 

Morning Mr Magpie Bass tabs (ver.1)

Radiohead
Rating:
0/5 (0 votes)

Hard to play? Try these video lessons and learn fast.
                Morning Mr Magpie - RADIOHEAD

//Update thanks to EdarotagV335, changed a note in the bridge

bass starts on 0:59
G|-----------------------------------------------------|
D|----------8------------7----------8-----------7------|
A|-------10---10-8---------8-7--------10-8--------8-7--|
E|-8~---------------8~---------8~----------8~----------|

Hard to hear, but think one of the variations is:
G|------------------------|
D|----------8-10/12-10-8--|
A|-------10---------------|
E|-8~---------------------|

no bass in chorus
Or he plays
G|------------------|
D|------------------|
A|------------------|
E|-8-8-8----8-8-8---|

bass comes back in
G|---------------------------------------------------------------|
D|----------8------------7----------8--------------8-/12-12-8-10-|
A|-------10---10-8---------8-7--------10-8------10---------------|
E|-8~---------------8~---------8~----------8--8------------------|

bridge
G|--------------8-10----------|
D|-------8-10-8------8-8-10-8-|
A|---7-8----------------------| 
E|-8--------------------------|

with variations like
G|--------------9-10-9-12-10--|
D|-------8-10-8---------------|
A|---7-8----------------------| 
E|-8--------------------------|

last one before verse
G|-----------------------|
D|-------8-10-------8-10-|
A|---7-8--------7-8------| 
E|-8----------8----------|

Verse is different after the bridge.
G|------------------------------------------------|
D|------------------------------------------------|
A|-10--8/10--8/10-8/15-3--10-10-810-10--1515-3-3--|
E|------------------------------------------------|
            
Hard to play? Try these video lessons and learn fast. | Correct




comments powered by Disqus
↑ Back to top | Tablatures and chords are parodies/interpretations of the original songs. You may use it for private study, scholarship, research or language learning purposes only