» » »

Radiohead, Meeting In The Aisle Tabs (ver.1)

Artists:  A B C D E F G H I J K L M N O P Q R S T U V W X Y Z # 

Meeting In The Aisle Tabs (ver.1)

Radiohead Tabs
 Rating:
4/5 (4 votes)
Meeting In The Aisle lessons Tabs too difficult? Try these video lessons and learn fast
                -------------------------------------------------------------------------------
-------------------------------------------------------------------------------

Fig. 1 plays from the beginning, while Fig. 2and Fig. 3 begin about 47 seconds 
into the song. Fig. 2 has a very synth strings feel to it on the recording, 
and Fig. 3 is the song's bassline, but both are so cool I thought I'd figure 
'em out. Enjoy. 

Tuning: Standard

Fig. 1 

e|-------15/16-16--16\14-14--14\12-12--12\10-10--10\9-9--9\7-7--7\5-5--5\4-4-|
B|-4--3--15/16-16--16\14-14--14\12-12--12\10-10--10\9-9--9\7-7--7\5-5--5\4-4-|
G|-4--3----------------------------------------------------------------------|
D|---------------------------------------------------------------------------|
A|---------------------------------------------------------------------------|
E|---------------------------------------------------------------------------|

e|-4\2-2--2p0-0--------------------------------------------------------------|
B|-4\2-2--2p0-0--5-4-4--4\3-3--3\2-2p0-0--0h1-1-1----------------------------|
G|---------------6\5-5--5\4-4--4\2-2p0-0--0h1-1-1----------------------------|
D|---------------------------------------------------------------------------|
A|---------------------------------------------------------------------------|
E|---------------------------------------------------------------------------|

Fig. 2

e|---------------------------------------------------------------------------|
B|---------------------------------------------------------------------------|
G|---------------------------------------------------------------------------|
D|-1----0-----------2--1--4--2/5-4-3----4------------------------------------|
A|-----------4--2------------------------------2-----------------------------|
E|---------------------------------------------------------------------------|

Fig. 3 

e|---------------------------------------------------------------------------|
B|---------------------------------------------------------------------------|
G|---------------------------------------------------------------------------|
D|----------7----------------------------------------------------------------|
A|-----7h9-------------------------------------------------------------------|
E|-7-----------6h7-----------------------------------------------------------| 

************************************

| /   slide up
| \   slide down
| h   hammer-on
| p   pull-off
| ~   vibrato
| +   harmonic
| x   Mute note
| b   Bend
| pb  Pre-bend
| br  Bend release
| pbr Pre-bend release
| brb Bend release bend

************************************
            
Submit corrections

comments powered by Disqus
↑ Back to top | Radiohead Tabs for Meeting In The Aisle. Lyrics for acoustic guitar and electric guitar. Tablatures and chords are parodies/interpretations of the original songs. You may use it for private study, scholarship, research or language learning purposes only