» » »

Life In A Glass House Bass tabs (ver.1)

Artists:  A B C D E F G H I J K L M N O P Q R S T U V W X Y Z # 

Life In A Glass House Bass tabs (ver.1)

Radiohead
Rating:
0/5 (0 votes)

Tabs too difficult? Try these video lessons and learn fast.
                K i didnt find any1 who posted the bass tab for this song so ill do it myself.
     Am
G:--------|
D:--------|
A:0-0-0-0-|  REPEAT 6 TIMES
E:--------|
0:46
G:------------------------|
D:------------------------|
A:3-3-3-3-----------------|  REPEAT TWICE
E:-------  THEN SLIDE TO--|

G:------------|
D:------------|
A:10-10-10-10-| REPEAT TWICE
E:------------|

G:----------------|
D:----------------|
A:9-9-9-9---------|        THEN U REEDOO THE WHOLE THING BUT WITH LESS A's
E:----------------|

THEN UV GOT CHORUS SO U DO (A) ALL THE TIME-I GET SOO BORED AT THAT PART SO I START TO 
ON THE OCTAVES LIKE:

G:2----14----|
D:--------12-|
A:--0--------|
E:-----------|

THEN I START HAVING FUN WITH THE SCALE WHEN THE CLARINETTE AND THE SAXOPHONE ARE DOIN THEIR SOLO:

G:14-12------------------14-17-14-19-21--|
D:------15-14-12-------------------------|                  JUST GET THE RITE
A:---------------15-14-12----------------|                    TIMING FOR THE
E:---------------------------------------|                    IMPROVISATION

WELL HAVE FUN!!! IF ANYONE KNOWS WER TO GET THE SHEET MUSIC FOR THE SAXOPHONE OR WATVER 
            
Tabs too difficult? Try these video lessons and learn fast.




comments powered by Disqus
↑ Back to top | Tablatures and chords are parodies/interpretations of the original songs. You may use it for private study, scholarship, research or language learning purposes only