» » »

Radiohead, Go To Sleep Bass tabs (ver.1)

Artists:  A B C D E F G H I J K L M N O P Q R S T U V W X Y Z # 

Go To Sleep Bass tabs (ver.1)

Radiohead Tabs
Rating:
0/5 (0 votes)
Go To Sleep lessons Tabs too difficult? Try these video lessons and learn fast
                ----------------------------------------------------------------------------
                      radiohead-go to sleep
----------------------------------------------------------------------------

Standar tuning

The timing is not correct.
(0:00)
G----------------------------------------------|
D----------------------------------------------|
A----------------------------------------------|
E-3----------6--5--8--7--3----------6--5--8--7-|

G----------------------------------------------|
D----------------------------------------------|
A----------------------------------------------|
E-3----------6--5--8--7--3----------6--5--8--7-|


(0:14)
G----------------------------------------------|
D----------------------------------------------|
A----------------------------------------------|
E-3----3-3---6--5--8--7--3----3-3---6--5--8--7-|

G-----------------------------------------------|
D-----------------------------------------------|
A-----------------------------------------------|
E-3/13--13-13\6--5--8--7--3----3-3---6--5--8--7-|

G----------------------------------------------|
D----------------------------------------------|
A----------------------------------------------|
E-3----3-3---6--5--8--7--3----3-3---6--5--8--7-|

G-----------------------------------------------|
D-----------------------------------------------|
A-----------------------------------------------|
E-3/13--13-13\6--5--8--7--3----3-3---6--5--8--7-|

(0:42)
G-----------------------------------------------|
D-----------------------------------------------|
A-----------------------------------6-----8-----|
E-3----3-3---6--5--8--7--3----3-3------6-----8--|

G-----------------------------------------------|
D-----------------------------------------------|
A----------------------------------/6----/8-----|
E-3----3-3---6--5--8--7--3----3-3------6-----8--|

G-----------------------------------------------|
D-----------------------------------------------|
A------------------------------------6-----8----|
E-3/13--13-13\6--5--8--7--3----3-3------6-----8-|

G-----------------------------------------------|
D--------------------------------------8-/10----|
A----------------------------------/6--------8--|
E-3----3-3---6--5--8--7--3----3-3---------------|

G-----------------------------------------------|
D----------------------------------/8---/10-----|
A-------------------------------------8-----10\-|
E-3----3-3---6--5--8--7--3----3-3---------------|

(1:22)
G-------------------------------------------------|
D-------------------------------------------------|
A-------------------------------------------------|
E-6-6-6-6-6-6/8-8-8-8-8-8\6-6-6-6-6-6\5-5-5-5-5-5-|

(1:28)
G--------------------------------------------|
D--------------------------------------------|
A--------------------------------------------|
E-3--3--3-3-/6--6--6-6--3--3--3-3--6--6--6-6-|

G---------------------------------------------|
D---------------------------------------------|
A---------------------------------------------|
E-3--3--3-3--6--6--6-6--8--8--8-8--3--3-3-1-3-|

G--------------------------------------|
D--------------------------------------|
A--------------------------------------|
E-3-1-3--3-3--6--6--6-6--8--8--8-8--3--|

G-----------------------------------|
D-----------------------------------|
A-----------------------------------|
E-3-1-3-1-3-1-6--6--6-6--8--8--6-8--|

G-----------------------------------|
D-----------------------------------|
A-----------------------------------|
E-3-1-3-1-3-1-6--6--6-6--8--8--6-8--|

G-----------------------------------|
D-----------------------------------|
A-----------------------------------|
E-3-1-3-1-3-1-6--6--6-6--8--8--6-8--|


G-----------------------------------|
D-----------------------------------|
A---------1-------------------------|
E-3-3-1h3---3-6--6--6-6--8--8--6-8--|

G-----------------------------------|
D-----------------------------------|
A-----------------------------------|
E-3-1-3--3-3--6--6--6-6--8--8--8-8--|

G--------------------------------------|
D--------------------------------------|
A--------------------------------------|
E-3-1-3--3-3--6--6--6-6--8--8--8-8--3--|

G-------------------------------------------------|
D-------------------------------------------------|
A---------1---------------------------------------|
E-3-3-1h3---3-6--6--6-6--8--8--6-8--3-3-3-3/6\3-3-|

(2:18)
G---------------------------------------------|
D---------------------------------------------|
A---------------------------------------------|
E-3-3-3-3-3-3-3-3-3-3-3-5-6-6-6-6/8-8-8-8-8-8-|

G--------------------------------------------|
D--------------------------------------------|
A--------------------------------------------|
E-3--3--3-3-/6--6--6-6--3--3--3-3--6--6--6-6-|

G---------------------------------------------|
D---------------------------------------------|
A---------------------------------------------|
E-3-3-3-3-3-3-3-3-3-3-3-5-6-6-6-6/8-8-8-6-8-8-|

G--------------------------------------------|
D--------------------------------------------|
A--------------------------------------------|
E-3--3--3-3-/6--6--6-6--3--3--3-3--6--6--6-6-|

G------------------------------------------------|
D------------------------------------------------|
A------------------------------------------------|
E-3-1-3--3-3--6--6--6-6--8--8--8-8--10-10-10-10\-|

(2:47)
G---------------------------------------------------------------|
D---------------------------------------------------------------|
A---------------------------------------------------------------|
E-3/6\3-3-3-3--6-6-6-6--8-8-8-8--6/8\6-3-3-1--6-6-6-6-6h8-8-8-8-|

G---------------------------------------------------------------|
D---------------------------------------------------------------|
A---------------------------------------------------------------|
E-3-1-3-3-3-3--6-6-6-6--8-8-8-8--6/8\6-3-3-1--6-6-6-6-6h8-8-8-8-|

G---------------------------------------------------------------|
D---------------------------------------------------------------|
A---------------------------------------------------------------|
E-6/8\6-3-3-3--6-6-6-6--8-8-8-8--6/8\6-3-1-3--6-6-6-3-6h8-8-8-8-|

G-----------------------------------------|
D--------/10-8--8-8---8--8--8h10p8--------|
A-------------------10-10-10------10------|  Fade out
E-6/8\6-3---------------------------------|
            

comments powered by Disqus
↑ Back to top | Radiohead Bass for Go To Sleep. Lyrics for acoustic guitar and electric guitar. Tablatures and chords are parodies/interpretations of the original songs. You may use it for private study, scholarship, research or language learning purposes only