» » »

Codex Bass tabs (ver.1)

Artists:  A B C D E F G H I J K L M N O P Q R S T U V W X Y Z # 

Codex Bass tabs (ver.1)

Radiohead
Rating:
0/5 (0 votes)
Tabs too difficult? Try these video lessons and learn fast.
                -------------------------------------------------------------------------------
			     CODEX -- Radiohead
-------------------------------------------------------------------------------


Tuning: Standard

Listen to the piano for timing!
It helps a ton if you know the song already!
Enjoy.

Intro:
Every two times you play the riff, play the D (5th fret A) section another time around. Repeat.
Play each note once per chord section. Feel free to improvise.

                        Every second time only!
G|---------------------|-----|
D|---------------------|-----|
A|-3--------1--------5-|-5---| x6
E|---------------------|-----|

Verse (1:04):

After a couple times, there is a part where you just play the intro once. (2:16)
A couple times before the bridge, just repeat the part with the note starting on the F.

G|---------------------------------------------------------------------------|
D|---------------------------------------------------------------------------|
A|-3--------1---------5------------------------------------------------------|
E|-----------------------------1---------3----5----6---------6--------5------|

G|---------------------------------------------------------------------------| 
D|---------------------------------------------------------------------------| 
A|------------------------------5---------5----------------------------------|   
E|-8----------8--------6-----------------------------------------------------|

Bridge/Outro (3:34):

G|---------------------------------------------------------------------------|
D|---------------------------------------------------------------------------|
A|---------------------------------------------------------------------------|
E|-7-----------8------------------6---------8----------6---------5---------5-|

The piano just plays the D-minor chord until the end.




| /  slide up
| \  slide down
| h  hammer-on
| p  pull-off
| ~  vibrato
| +  harmonic
| x  Mute note
===============================================================================
            
Tabs too difficult? Try these video lessons and learn fast.


comments powered by Disqus
↑ Back to top | Tablatures and chords are parodies/interpretations of the original songs. You may use it for private study, scholarship, research or language learning purposes only