» » »

Radiohead, Banana Co Bass tabs (ver.1)

Artists:  A B C D E F G H I J K L M N O P Q R S T U V W X Y Z # 

Banana Co Bass tabs (ver.1)

Radiohead Tabs
 Rating:
4/5 (4 votes)
Banana Co lessons Tabs too difficult? Try these video lessons and learn fast
                Tuning: Standard (E A D G)



Verse:
|----------------|----------------|----------------|----------------||
|-------------2--|----------------|----------------|----------------||
|-----2----2----2|--3--3---3-3-3--|----------------|-----------2/4-5||
|-0-----0--------|----------------|--3-3-3--2-2-2--|--3-3-3--2------||


|----------------|----------------|----------------|----------------||
|------------4p2-|----------------|----------------|--7p5h7---------||
|-----2----2----2|--3--3---3-3-3--|----------------|----------------||
|-0-----0--------|----------------|--3-3-3--2-2-2--|3------2--2--2--||


Pre Chorus:
|-------|------|------||
|-------|------|------||
|--3~---|------|--3~--||
|-------|---3~-|------||


Chorus:
|-------|-------|-------|-------||
|-------|-------|-------|-------||
|-7-7-7-|-6-6-6-|-5-5-5-|-4-4-4-||
|-------|-------|-------|-------||

Fill:
|--------||
|--7-4h5-||
|--------||
|--------||

Fill 2:
|----------------||
|-7-7-4h7-7-7-5h7||
|----------------||
|----------------||

Fill 3:
|-------||
|-------||
|-5h7---||
|-------||


Order:
Verse
Pre Chorus
Chorus
Fill
Verse
Pre Chorus
Chorus
Fill 2
Verse
Pre Chorus
Chorus
Fill 3
            
Submit corrections

comments powered by Disqus
↑ Back to top | Radiohead Bass for Banana Co. Lyrics for acoustic guitar and electric guitar. Tablatures and chords are parodies/interpretations of the original songs. You may use it for private study, scholarship, research or language learning purposes only