» » »

Radiohead, Airbag Bass tabs (ver.1)

Artists:  A B C D E F G H I J K L M N O P Q R S T U V W X Y Z # 

Airbag Bass tabs (ver.1)

Radiohead Tabs
Rating:
5/5 (6 votes)
Airbag lessons Tabs too difficult? Try these video lessons and learn fast
                -------------------------------------------------------------------------------
-------------------------------------------------------------------------------


Tuning: EADG (Standard)

I searched the internet for an Airbag Bass Tab but couldn’t find a complete one (since 
bass schema continuosly changes), so I did it myself. I think this one is correct and 
the whole song.
My only doubt is about outro, but it works.


Intro (No bass)
G|--------------|--------------|--------------|--------------|
D|--------------|--------------|-2-3----------|--------------|
A|-----3-2-4-0--|-----3-2-0-4--|-----3-2-4-0--|-----3-2-0----|
E|-0-1----------|-0-1----------|--------------|-0-1----------|

1st Verse riffs:
G|--------------|--------------|--------------|--------------|--------------|
D|--------------|--------------|--------------|--------------|--------------|
A|--------------|--------------|--------4-----|--------------|--------------|
E|-03-03-5---55-|-03-03-5---55-|-------3—53---|-03-03-5—55---|-03-03-5-35---|

First Chorus:
"In an interstellar burst"     "I'm back to save the universe"
G|--------------|--------------|--------------|--------------|
D|--------------|--------------|--------------|--------------|
A|--------------|--------------|--------------|--------------|
E|-03-03-5—-----|-----03-03-5--|-030---030-5--|------03-03-5-|

Main Riff
G|--------------|--------------|--------------|--------------|
D|--------------|--------------|--------------|--------------|
A|--------------|--------------|--------------|--------------|
E|--------------|-----03-03-5—-|---------5-5--|-----03-03-5--|

2nd Verse riffs:
G|--------------|--------------|--------------|--------------|--------------|--------------|
D|--------------|--------------|--------------|--------------|--------------|--------------|
A|--------------|--4-----------|--------------|-----------3--|-0330---------|--------------|
E|-03-03-5--035-|-3—53--303-5--|---------5—55-|-03-03-5----5-|-------303-5--|-5—55---------|

Second Chorus:
"In an interstellar burst"     "I'm back to save the universe"
G|--------------|--------------|--------------|--------------|
D|--------------|--------------|--------------|--------------|
A|-----------3--|--------------|--------------|--------------|
E|-03-03-5----5-|------3-03-5--|-----03-03--5-|-----03-03--5-|

Instrumental
G|--------------|--------------|--------------|--------------|--------------|--------------|
D|--------------|--------------|--------------|--------------|--------------|--------------|
A|--------------|--------------|--------------|------------3-|--------------|-----------3--|
E|-----03-03--5-|-----03-03--5-|-----03-03--5-|-----033-030--|-----03-03--5-|----033-030-5-|

G|--------------|--------------|--------------|--------------|--------------|--------------|
D|--------------|--------------|--------------|--------------|--------------|--------------|
A|--------------|-----------3--|--------------|--------------|--------------|--------------|
E|-----03-03--5-|---03-03----5-|-----03-03-5--|-----------35-|---303--5--35-|---303--5--35-|

Third Chorus:
"In an interstellar burst"     "I'm back to save the universe"
G|--------------|--------------|--------------|--------------|
D|--------------|--------------|--------------|--------------|
A|--------------|--------------|--------------|--------------|
E|--------------|-----03-03-5--|-------03-03--|--03-03-------|

G|--------------|--------------|--------------|--------------|
D|--------------|--------------|--------------|--------------|
A|--------------|--------------|--------------|--------------|
E|-----03-03-5--|--03-03-------|-----03-03-5--|--03-03-------|

G|--------------|--------------|--------------|--------------|
D|--------------|--------------|--------------|--------------|
A|-----------3--|--------------|--------------|--------------|
E|-----03-03--5-|--03-03-------|-----03-03-5--|--03-03-------|

G|--------------|--------------|--------------|--------------|
D|--------------|--------------|--------------|--------------|
A|--------------|--------------|--------------|--------------|
E|--03-03-------|-------03-03--|-----03-03----|--03-03-5-----|

Towards Outro:
G|--------------|--------------|--------------|--------------|--------------|--------------|
D|--------------|--------------|--------------|--------------|--------------|--------------|
A|--------------|-----------3--|--------------|--------------|--------------|------------3-|
E|--35--35--35--|35035-355-3-53|-35035-35-35--|-035035035-35-|-035035035-35-|035035035-35-5|

G|--------------|--------------|--------------|--------------|--------------|--------------|
D|--------------|--------------|--------------|--------------|--------------|--------------|
A|------------3-|------------3-|------------3-|------------3-|------------3-|------------3-|
E|035035035-35-5|035035035-35-5|035035035-35-5|035035035-35-5|035035035-35-5|035035035-35-5|

Outro:
G|--------------|--------------|--------------|--------------|
D|--------------|--------------|--------------|--------------|
A|---32-4--44---|---32-44--44--|---32-44--444-|---3----------|
E|-1------------|-1------------|-1------------|-1---03-03-5--|


===============================================================================
            
Submit corrections

comments powered by Disqus
↑ Back to top | Radiohead Bass for Airbag. Lyrics for acoustic guitar and electric guitar. Tablatures and chords are parodies/interpretations of the original songs. You may use it for private study, scholarship, research or language learning purposes only