>
 >
2 2 5 3

2 2 5 3 Guitar Tabs

Radiohead - 2 2 5 3 chords, tabs, tablatures, lyrics

Guitar lessons | Add/correct | Request | Top 50 tabs Artists:  A B C D E F G H I J K L M N O P Q R S T U V W X Y Z 0-9

2 2 5 3 Guitar Tabs – Radiohead

CD, Sheet music, Poster

Do you like 2 2 5 3? Share with your friends now
Tabs
              2 + 2 = 5                                     


                                                                       radiohead
Thom
Play this Song



                                                                          
E||------------------------|-------------------||------------------------|
B||------------------------|-------------------||------------------------|
G||---------------------x--|-------------------||*--1--------------------|
D||--x-x-x--0----0------x--|------0------------||*--------3-----------3--|
A||--x-x-x--0----0---------|------0------------||------3-----3-----3-----|
D||--x-x-0--0----0---------|------0------------||---3-----------3--------|


                                                                          
-----------------------|-----------------------|------------------------||
-----------------------|-----------------------|------------------------||
--1--------------------|--0--------------------|--0--------------------*||
--------3-----------3--|--------3-----------3--|--------3-----------3--*||
-----3-----3-----3-----|-----3-----3-----3-----|-----3-----3-----3------||
--3-----------3--------|--2-----------2--------|--2-----------2---------||


                                                                        
-----------------------|-----------------------|-----------------------|
-----------------------|-----------------------|-----------------------|
--1--------------------|--1--------------------|--0--------------------|
--------3-----------3--|--------3-----------3--|--------3-----------3--|
-----3-----3-----3-----|-----3-----3-----3-----|-----3-----3-----3-----|
--3-----------3--------|--3-----------3--------|--2-----------2--------|


                                                                        
-----------------------|-----------------------|-----------------------|
-----------------------|-----------------------|-----------------------|
--0--------------------|--1--------------------|--1--------------------|
--------3-----------3--|--------3-----------3--|--------3-----------3--|
-----3-----3-----3-----|-----3-----3-----3-----|-----3-----3-----3-----|
--2-----------2--------|--3-----------3--------|--3-----------3--------|


                                                                        
-----------------------|-----------------------|-----------------------|
-----------------------|-----------------------|-----------------------|
--0--------------------|--0--------------------|--1--------------------|
--------3-----------3--|--------3-----------3--|--------3-----------3--|
-----3-----3-----3-----|-----3-----3-----3-----|-----3-----3-----3-----|
--2-----------2--------|--2-----------2--------|--3-----------3--------|


                                                                        
-----------------------|-----------------------|-----------------------|
-----------------------|-----------------------|-----------------------|
--1--------------------|--0--------------------|--0--------------------|
--------3-----------3--|--------3-----------3--|--------3-----------3--|
-----3-----3-----3-----|-----3-----3-----3-----|-----3-----3-----3-----|
--3-----------3--------|--2-----------2--------|--2-----------2--------|


                                                                        
-----------------------|-----------------------|-----------------------|
-----------------------|-----------------------|-----------------------|
--2--------------------|--2--------------------|--2--------------------|
--------3-----------3--|--------3-----------3--|--------3-----------3--|
-----3-----3-----3-----|-----3-----3-----3-----|-----3-----3-----3-----|
--1-----------1--------|--1-----------1--------|--0-----------0--------|


                                                                        
-----------------------|-----------------------|-----------------------|
-----------------------|-----------------------|-----------------------|
--3--------------------|--3--------------------|--0--------------------|
--------5-----------5--|--------3-----------3--|--------2-----------2--|
-----5-----5-----5-----|-----4-----4-----4-----|-----3-----3-----3-----|
--5-----------5--------|--3-----------3--------|--2-----------2--------|


                                                                        
-----------------------|-----------------------|-----------------------|
-----------------------|-----------------------|-----------------------|
--0--------------------|--0--------------------|--1--------------------|
--------2-----------2--|--------2-----------2--|--------3-----------3--|
-----3-----3-----3-----|-----3-----3-----3-----|-----3-----3-----3-----|
--2-----------2--------|--2-----------2--------|--3-----------3--------|


                                                                        
-----------------------|-----------------------|-----------------------|
-----------------------|-----------------------|-----------------------|
--1--------------------|--0--------------------|--0--------------------|
--------3-----------3--|--------3-----------3--|--------3-----------3--|
-----3-----3-----3-----|-----3-----3-----3-----|-----3-----3-----3-----|
--3-----------3--------|--2-----------2--------|--2-----------2--------|


                                                                        
-----------------------|-----------------------|-----------------------|
-----------------------|-----------------------|-----------------------|
--1--------------------|--1--------------------|--0--------------------|
--------3-----------3--|--------3-----------3--|--------3-----------3--|
-----3-----3-----3-----|-----3-----3-----3-----|-----3-----3-----3-----|
--3-----------3--------|--3-----------3--------|--2-----------2--------|


                                                                        
-----------------------|-----------------------|-----------------------|
-----------------------|-----------------------|-----------------------|
--0--------------------|--1--------------------|--1--------------------|
--------3-----------3--|--------3-----------3--|--------3-----------3--|
-----3-----3-----3-----|-----3-----3-----3-----|-----3-----3-----3-----|
--2-----------2--------|--3-----------3--------|--3-----------3--------|


                                                                        
-----------------------|-----------------------|-----------------------|
-----------------------|-----------------------|-----------------------|
--0--------------------|--0--------------------|--2--------------------|
--------3-----------3--|--------3-----------3--|--------3-----------3--|
-----3-----3-----3-----|-----3-----3-----3-----|-----3-----3-----3-----|
--2-----------2--------|--2-----------2--------|--1-----------1--------|


                                                                        
-----------------------|-----------------------|-----------------------|
-----------------------|-----------------------|-----------------------|
--2--------------------|--2--------------------|--3--------------------|
--------3-----------3--|--------3-----------3--|--------5-----------5--|
-----3-----3-----3-----|-----3-----3-----3-----|-----5-----5-----5-----|
--1-----------1--------|--0-----------0--------|--5-----------5--------|


                                                                        
-----------------------|-----------------------|-----------------------|
-----------------------|-----------------------|-----------------------|
--3--------------------|--0--------------------|--0--------------------|
--------3-----------3--|--------2-----------2--|--------2-----------2--|
-----4-----4-----4-----|-----3-----3-----3-----|-----3-----3-----3-----|
--3-----------3--------|--2-----------2--------|--2-----------2--------|


                                                           
-----------------------|----------------------------------|
-----------------------|--9-9-9-9-9-9-9-9-9-9-9-9-9-9-9-9-|
--0--------------------|----------------------------------|
--------2-----------2--|----------------------------------|
-----3-----3-----3-----|----------------------------------|
--2-----------2--------|----------------------------------|


                                                                      
----------------------------------|----------------------------------|
--8-8-8-8-8-8-8-8-8-8-8-8-8-8-8-8-|--6-6-6-6-6-6-6-6-6-6-6-6-6-6-6-6-|
----------------------------------|----------------------------------|
----------------------------------|----------------------------------|
----------------------------------|----------------------------------|
----------------------------------|----------------------------------|


                                                                      
----------------------------------|----------------------------------|
--8-8-8-8-8-8-8-8-8-8-8-8-8-8-8-8-|--8-8-8-8-8-8-8-8-8-8-8-8-8-8-8-8-|
----------------------------------|----------------------------------|
----------------------------------|----------------------------------|
----------------------------------|----------------------------------|
----------------------------------|----------------------------------|


                                                                               
----------------------------------|-------------------------------------------|
--6-6-6-6-6-6-6-6-6-6-6-6-6-6-6-6-|--11-11-11-11-11-11-11-11-11-6-6-6-6-6-6-6-|
----------------------------------|-------------------------------------------|
----------------------------------|-------------------------------------------|
----------------------------------|-------------------------------------------|
----------------------------------|-------------------------------------------|


                                                                               
-------------------------------------------|----------------------------------|
--6-6-6-6-6-6-6-11-11-11-11-11-11-11-11-11-|--8-8-8-8-8-8-8-8-8-8-8-8-8-8-8-8-|
-------------------------------------------|----------------------------------|
-------------------------------------------|----------------------------------|
-------------------------------------------|----------------------------------|
-------------------------------------------|----------------------------------|


                                                                      
----------------------------------|----------------------------------|
--9-9-9-9-9-9-9-9-9-9-9-9-9-9-9-9-|--8-8-8-8-8-8-8-8-8-8-8-8-8-8-8-8-|
----------------------------------|----------------------------------|
----------------------------------|----------------------------------|
----------------------------------|----------------------------------|
----------------------------------|----------------------------------|


                                                                      
----------------------------------|----------------------------------|
--6-6-6-6-6-6-6-6-6-6-6-6-6-6-6-6-|--8-8-8-8-8-8-8-8-8-8-8-8-8-8-8-8-|
----------------------------------|----------------------------------|
----------------------------------|----------------------------------|
----------------------------------|----------------------------------|
----------------------------------|----------------------------------|


                                                                      
----------------------------------|----------------------------------|
--8-8-8-8-8-8-8-8-8-8-8-8-8-8-8-8-|--6-6-6-6-6-6-6-6-6-6-6-6-6-6-6-6-|
----------------------------------|----------------------------------|
----------------------------------|----------------------------------|
----------------------------------|----------------------------------|
----------------------------------|----------------------------------|


                                            
-------------------------------------------|
--11-11-11-11-11-11-11-11-11-6-6-6-6-6-6-6-|
-------------------------------------------|
-------------------------------------------|
-------------------------------------------|
-------------------------------------------|


                                                                               
-------------------------------------------|----------------------------------|
--6-6-6-6-6-6-6-11-11-11-11-11-11-11-11-11-|--8-8-8-8-8-8-8-8-8-8-8-8-8-8-8-8-|
-------------------------------------------|----------------------------------|
-------------------------------------------|----------------------------------|
-------------------------------------------|----------------------------------|
-------------------------------------------|----------------------------------|


                                                                   
------------------------------------------------------------------|
--9-9-9-9-9-9-9-9-9-9-9-9-9-9-9-9-9-9-9-9-9-9-9-9-9-9-9-9-9-9-9-9-|
------------------------------------------------------------------|
------------------------------------------------------------------|
------------------------------------------------------------------|
------------------------------------------------------------------|


                                                                   
------------------------------------------------------------------|
--8-8-8-8-8-8-8-8-8-8-8-8-8-8-8-8-8-8-8-8-8-8-8-8-8-8-8-8-8-8-8-8-|
------------------------------------------------------------------|
------------------------------------------------------------------|
------------------------------------------------------------------|
------------------------------------------------------------------|


                                                                   
------------------------------------------------------------------|
--6-6-6-6-6-6-6-6-6-6-6-6-6-6-6-6-6-6-6-6-6-6-6-6-6-6-6-6-6-6-6-6-|
------------------------------------------------------------------|
------------------------------------------------------------------|
------------------------------------------------------------------|
------------------------------------------------------------------|


                                                                   
------------------------------------------------------------------|
--8-8-8-8-8-8-8-8-8-8-8-8-8-8-8-8-8-8-8-8-8-8-8-8-8-8-8-8-8-8-8-8-|
------------------------------------------------------------------|
------------------------------------------------------------------|
------------------------------------------------------------------|
------------------------------------------------------------------|


                                                                   
------------------------------------------------------------------|
--8-8-8-8-8-8-8-8-8-8-8-8-8-8-8-8-8-8-8-8-8-8-8-8-8-8-8-8-8-8-8-8-|
------------------------------------------------------------------|
------------------------------------------------------------------|
------------------------------------------------------------------|
------------------------------------------------------------------|


                                                                   
------------------------------------------------------------------|
--6-6-6-6-6-6-6-6-6-6-6-6-6-6-6-6-6-6-6-6-6-6-6-6-6-6-6-6-6-6-6-6-|
------------------------------------------------------------------|
------------------------------------------------------------------|
------------------------------------------------------------------|
------------------------------------------------------------------|


                                                                                
--------------------------------------------------------------------------------
--11-11-11-11-11-11-11-11-11-11-11-11-11-11-11-11-11-11-6-6-6-6-6-6-6-6-6-6-6-6-
--------------------------------------------------------------------------------
--------------------------------------------------------------------------------
--------------------------------------------------------------------------------
--------------------------------------------------------------------------------


                                                                                
--------------------------------------------------------------------------------
--6-6-6-6-6-6-6-6-6-6-6-6-6-6-6-6-11-11-11-11-11-11-11-11-11-11-11-11-11-11-11-1
--------------------------------------------------------------------------------
--------------------------------------------------------------------------------
--------------------------------------------------------------------------------
--------------------------------------------------------------------------------


                                                                   
------------------------------------------------------------------|
--8-8-8-8-8-8-8-8-8-8-8-8-8-8-8-8-8-8-8-8-8-8-8-8-8-8-8-8-8-8-8-8-|
------------------------------------------------------------------|
------------------------------------------------------------------|
------------------------------------------------------------------|
------------------------------------------------------------------|


                                                                   
------------------------------------------------------------------|
--9-9-9-9-9-9-9-9-9-9-9-9-9-9-9-9-9-9-9-9-9-9-9-9-9-9-9-9-9-9-9-9-|
------------------------------------------------------------------|
------------------------------------------------------------------|
------------------------------------------------------------------|
------------------------------------------------------------------|


                                                                   
------------------------------------------------------------------|
--8-8-8-8-8-8-8-8-8-8-8-8-8-8-8-8-8-8-8-8-8-8-8-8-8-8-8-8-8-8-8-8-|
------------------------------------------------------------------|
------------------------------------------------------------------|
------------------------------------------------------------------|
------------------------------------------------------------------|


                                                                   
------------------------------------------------------------------|
--6-6-6-6-6-6-6-6-6-6-6-6-6-6-6-6-6-6-6-6-6-6-6-6-6-6-6-6-6-6-6-6-|
------------------------------------------------------------------|
------------------------------------------------------------------|
------------------------------------------------------------------|
------------------------------------------------------------------|


                                                                   
------------------------------------------------------------------|
--8-8-8-8-8-8-8-8-8-8-8-8-8-8-8-8-8-8-8-8-8-8-8-8-8-8-8-8-8-8-8-8-|
------------------------------------------------------------------|
------------------------------------------------------------------|
------------------------------------------------------------------|
------------------------------------------------------------------|


                                                                   
------------------------------------------------------------------|
--8-8-8-8-8-8-8-8-8-8-8-8-8-8-8-8-8-8-8-8-8-8-8-8-8-8-8-8-8-8-8-8-|
------------------------------------------------------------------|
------------------------------------------------------------------|
------------------------------------------------------------------|
------------------------------------------------------------------|


                                                                   
------------------------------------------------------------------|
--6-6-6-6-6-6-6-6-6-6-6-6-6-6-6-6-6-6-6-6-6-6-6-6-6-6-6-6-6-6-6-6-|
------------------------------------------------------------------|
------------------------------------------------------------------|
------------------------------------------------------------------|
------------------------------------------------------------------|


                                                                                
--------------------------------------------------------------------------------
--11-11-11-11-11-11-11-11-11-11-11-11-11-11-11-11-11-11-6-6-6-6-6-6-6-6-6-6-6-6-
--------------------------------------------------------------------------------
--------------------------------------------------------------------------------
--------------------------------------------------------------------------------
--------------------------------------------------------------------------------


                                                                                
--------------------------------------------------------------------------------
--6-6-6-6-6-6-6-6-6-6-6-6-6-6-6-6-11-11-11-11-11-11-11-11-11-11-11-11-11-11-11-1
--------------------------------------------------------------------------------
--------------------------------------------------------------------------------
--------------------------------------------------------------------------------
--------------------------------------------------------------------------------


                                                                   
------------------------------------------------------------------|
--8-8-8-8-8-8-8-8-8-8-8-8-8-8-8-8-8-8-8-8-8-8-8-8-8-8-8-8-8-8-8-8-|
------------------------------------------------------------------|
------------------------------------------------------------------|
------------------------------------------------------------------|
------------------------------------------------------------------|


                           F#m        Fadd9+/C#      Fmadd9-                
--x----x----x--x--x--x--|--x----x--x--x--x--x--x--|--x----x----x--x--x--x--|
--6----6----8--8--8--8--|--6----6--6--8--8--8--8--|--6----6----x--6--6--6--|
--x----x----x--x--x--x--|--x----x--x--x--x--x--x--|--x----x----x--x--x--x--|
--x----x----x--x--x--x--|--x----x--x--x--x--x--x--|--x----x----x--x--x--x--|
--x----x----x--x--x--x--|--x----x--x--x--x--x--x--|--x----x----x--x--x--x--|
--6----6----8--8--8--8--|--6----6--6--8--8--8--8--|--5----5----x--5--5--5--|


                                                                            
--x----x----x--x--x--x--|--x----x----x--x--x--x--|--x----x--x--x--x--x--x--|
--6----6----x--6--6--6--|--6----6----8--8--8--8--|--6----6--6--8--8--8--8--|
--x----x----x--x--x--x--|--x----x----x--x--x--x--|--x----x--x--x--x--x--x--|
--x----x----x--x--x--x--|--x----x----x--x--x--x--|--x----x--x--x--x--x--x--|
--x----x----x--x--x--x--|--x----x----x--x--x--x--|--x----x--x--x--x--x--x--|
--5----5----x--5--5--5--|--6----6----8--8--8--8--|--6----6--6--8--8--8--8--|


                                                                             
--x----x----x--x--x--x--|--x----x----x--x--x--x--|--x-----x-----x--x--x--x--|
--6----6----x--6--6--6--|--6----6----x--6--6--6--|--11----11----6--6--6--6--|
--x----x----x--x--x--x--|--x----x----x--x--x--x--|--x-----x-----x--x--x--x--|
--x----x----x--x--x--x--|--x----x----x--x--x--x--|--x-----x-----x--x--x--x--|
--x----x----x--x--x--x--|--x----x----x--x--x--x--|--x-----x-----x--x--x--x--|
--5----5----x--5--5--5--|--5----5----x--5--5--5--|--11----11----5--5--5--5--|


                                                                               
--x-----x---x---x--x--x--x--|--x----x----x--x--x--x--|--x----x----x--x--x--x--|
--11----11--11--6--6--6--6--|--6----6----x--6--6--6--|--6----6----x--6--6--6--|
--x-----x---x---x--x--x--x--|--x----x----x--x--x--x--|--x----x----x--x--x--x--|
--x-----x---x---x--x--x--x--|--5----5----x--5--5--5--|--5----5----x--5--5--5--|
--x-----x---x---x--x--x--x--|--5----5----x--5--5--5--|--5----5----x--5--5--5--|
--11----11--11--5--5--5--5--|--5----5----x--5--5--5--|--5----5----x--5--5--5--|


                                                        
--x-----x-----x--x--x--x--|--x-----x---x---x--x--x--x--|
--11----11----6--6--6--6--|--11----11--11--6--6--6--6--|
--x-----x-----x--x--x--x--|--x-----x---x---x--x--x--x--|
--x-----x-----x--x--x--x--|--x-----x---x---x--x--x--x--|
--x-----x-----x--x--x--x--|--x-----x---x---x--x--x--x--|
--11----11----5--5--5--5--|--11----11--11--5--5--5--5--|


                                                                             
--x----x----x--x--x--x--|--x----x----x--x--x--x--|--x-----x-----x--x--x--x--|
--6----6----x--6--6--6--|--6----6----x--6--6--6--|--11----11----6--6--6--6--|
--x----x----x--x--x--x--|--x----x----x--x--x--x--|--x-----x-----x--x--x--x--|
--5----5----x--5--5--5--|--5----5----x--5--5--5--|--x-----x-----x--x--x--x--|
--5----5----x--5--5--5--|--5----5----x--5--5--5--|--x-----x-----x--x--x--x--|
--5----5----x--5--5--5--|--5----5----x--5--5--5--|--11----11----5--5--5--5--|


                                                                               
--x-----x---x---x--x--x--x--|--x----x----x--x--x--x--|--x----x----x--x--x--x--|
--11----11--11--6--6--6--6--|--6----6----x--6--6--6--|--6----6----x--6--6--6--|
--x-----x---x---x--x--x--x--|--x----x----x--x--x--x--|--x----x----x--x--x--x--|
--x-----x---x---x--x--x--x--|--5----5----x--5--5--5--|--5----5----x--5--5--5--|
--x-----x---x---x--x--x--x--|--5----5----x--5--5--5--|--5----5----x--5--5--5--|
--11----11--11--5--5--5--5--|--5----5----x--5--5--5--|--5----5----x--5--5--5--|


                                                                             
--x----x----x--x--x--x--|--x----x----x--x--x--x--|--x-----x-----x--x--x--x--|
--6----6----x--6--6--6--|--6----6----x--6--6--6--|--11----11----6--6--6--6--|
--x----x----x--x--x--x--|--x----x----x--x--x--x--|--x-----x-----x--x--x--x--|
--5----5----x--5--5--5--|--5----5----x--5--5--5--|--x-----x-----x--x--x--x--|
--5----5----x--5--5--5--|--5----5----x--5--5--5--|--x-----x-----x--x--x--x--|
--5----5----x--5--5--5--|--5----5----x--5--5--5--|--11----11----5--5--5--5--|


                                                                               
--x-----x---x---x--x--x--x--|--x----x----x--x--x--x--|--x----x----x--x--x--x--|
--11----11--11--6--6--6--6--|--6----6----x--6--6--6--|--6----6----x--6--6--6--|
--x-----x---x---x--x--x--x--|--x----x----x--x--x--x--|--x----x----x--x--x--x--|
--x-----x---x---x--x--x--x--|--5----5----x--5--5--5--|--5----5----x--5--5--5--|
--x-----x---x---x--x--x--x--|--5----5----x--5--5--5--|--5----5----x--5--5--5--|
--11----11--11--5--5--5--5--|--5----5----x--5--5--5--|--5----5----x--5--5--5--|


                                                        
--x-----x-----x--x--x--x--|--x-----x---x---x--x--x--x--|
--11----11----6--6--6--6--|--11----11--11--6--6--6--6--|
--x-----x-----x--x--x--x--|--x-----x---x---x--x--x--x--|
--x-----x-----x--x--x--x--|--x-----x---x---x--x--x--x--|
--x-----x-----x--x--x--x--|--x-----x---x---x--x--x--x--|
--11----11----5--5--5--5--|--11----11--11--5--5--5--5--|


                                                                           
--x----x----x--x--x--x--|--x----x----x--x--x--x--|--x----x----x--x--x--x--|
--6----6----x--6--6--6--|--6----6----x--6--6--6--|--6----6----x--6--6--6--|
--x----x----x--x--x--x--|--x----x----x--x--x--x--|--x----x----x--x--x--x--|
--5----5----x--5--5--5--|--5----5----x--5--5--5--|--5----5----x--5--5--5--|
--5----5----x--5--5--5--|--5----5----x--5--5--5--|--5----5----x--5--5--5--|
--5----5----x--5--5--5--|--5----5----x--5--5--5--|--5----5----x--5--5--5--|


                                             
--x----x----x--x--x--x--|------------------||
--6----6----x--6--6--6--|------------------||
--x----x----x--x--x--x--|------------------||
--5----5----x--5--5--5--|------------------||
--5----5----x--5--5--5--|------------------||
--5----5----x--5--5--5--|------------------||





Comments


Popular Radiohead tabs & chords
Climbing Up The Walls Bass Tabs
Karma Police 4 Bass Tabs
After The Goldrush Chords
Creep (Acoustic) Chords
Kid A Chords
Lift Chords
The Daily Mail Chords
Lurgee 1 Tabs
Street Spirit 1 Tabs
Big Ideas Nude Ukulele


Song lyrics



↑ Back to top | Tablatures and chords are parodies/interpretations of the original songs. You may use it for private study, scholarship, research or language learning purposes only
© 2014 AZChords.com Contact us | Privacy policy | DMCA | Add/correct tabs | Request tabs | Top 50 tabs